0
SECTION
2
ENTITIES
0
POLYLINE
8
Stations
62
135
66
1
0
VERTEX
8
Stations
10
0.0
20
3.37776
0
VERTEX
8
Stations
10
0.02134
20
3.47545
0
VERTEX
8
Stations
10
0.04283
20
3.57312
0
VERTEX
8
Stations
10
0.0646
20
3.67072
0
VERTEX
8
Stations
10
0.08679
20
3.76822
0
VERTEX
8
Stations
10
0.10954
20
3.8656
0
VERTEX
8
Stations
10
0.13296
20
3.96281
0
VERTEX
8
Stations
10
0.1572
20
4.05983
0
VERTEX
8
Stations
10
0.18231
20
4.15661
0
VERTEX
8
Stations
10
0.20829
20
4.25314
0
VERTEX
8
Stations
10
0.23505
20
4.34941
0
VERTEX
8
Stations
10
0.26257
20
4.44567
0
VERTEX
8
Stations
10
0.29069
20
4.54162
0
VERTEX
8
Stations
10
0.31936
20
4.63739
0
VERTEX
8
Stations
10
0.34847
20
4.73299
0
VERTEX
8
Stations
10
0.37797
20
4.8285
0
VERTEX
8
Stations
10
0.40782
20
4.92401
0
VERTEX
8
Stations
10
0.43792
20
5.01945
0
VERTEX
8
Stations
10
0.46821
20
5.11474
0
VERTEX
8
Stations
10
0.49868
20
5.210
0
VERTEX
8
Stations
10
0.52929
20
5.30519
0
VERTEX
8
Stations
10
0.56006
20
5.4004
0
VERTEX
8
Stations
10
0.59099
20
5.49566
0
VERTEX
8
Stations
10
0.62194
20
5.59052
0
VERTEX
8
Stations
10
0.65357
20
5.68701
0
VERTEX
8
Stations
10
0.68486
20
5.78186
0
VERTEX
8
Stations
10
0.71778
20
5.8803
0
VERTEX
8
Stations
10
0.7492
20
5.97294
0
VERTEX
8
Stations
10
0.77976
20
6.06395
0
VERTEX
8
Stations
10
0.81128
20
6.15835
0
VERTEX
8
Stations
10
0.8429
20
6.2534
0
VERTEX
8
Stations
10
0.87451
20
6.34875
0
VERTEX
8
Stations
10
0.90605
20
6.44419
0
VERTEX
8
Stations
10
0.93744
20
6.53942
0
VERTEX
8
Stations
10
0.96864
20
6.63438
0
VERTEX
8
Stations
10
0.99976
20
6.72944
0
VERTEX
8
Stations
10
1.03079
20
6.82459
0
VERTEX
8
Stations
10
1.06167
20
6.91972
0
VERTEX
8
Stations
10
1.09239
20
7.01482
0
VERTEX
8
Stations
10
1.12271
20
7.10917
0
VERTEX
8
Stations
10
1.15346
20
7.2053
0
VERTEX
8
Stations
10
1.1838
20
7.30067
0
VERTEX
8
Stations
10
1.21394
20
7.39586
0
VERTEX
8
Stations
10
1.24406
20
7.49152
0
VERTEX
8
Stations
10
1.27391
20
7.58687
0
VERTEX
8
Stations
10
1.30385
20
7.68307
0
VERTEX
8
Stations
10
1.33369
20
7.77966
0
VERTEX
8
Stations
10
1.36292
20
7.8753
0
VERTEX
8
Stations
10
1.39143
20
7.97006
0
VERTEX
8
Stations
10
1.4197
20
8.06564
0
VERTEX
8
Stations
10
1.44713
20
8.15966
0
VERTEX
8
Stations
10
1.47519
20
8.25689
0
VERTEX
8
Stations
10
1.50271
20
8.35317
0
VERTEX
8
Stations
10
1.52998
20
8.4494
0
VERTEX
8
Stations
10
1.55707
20
8.54593
0
VERTEX
8
Stations
10
1.58356
20
8.64126
0
VERTEX
8
Stations
10
1.61026
20
8.73846
0
VERTEX
8
Stations
10
1.63641
20
8.83498
0
VERTEX
8
Stations
10
1.66216
20
8.9316
0
VERTEX
8
Stations
10
1.68746
20
9.02841
0
VERTEX
8
Stations
10
1.71225
20
9.12548
0
VERTEX
8
Stations
10
1.73644
20
9.22277
0
VERTEX
8
Stations
10
1.75998
20
9.32024
0
VERTEX
8
Stations
10
1.78278
20
9.41784
0
VERTEX
8
Stations
10
1.80481
20
9.51556
0
VERTEX
8
Stations
10
1.8258
20
9.61228
0
VERTEX
8
Stations
10
1.84623
20
9.71023
0
VERTEX
8
Stations
10
1.86582
20
9.80838
0
VERTEX
8
Stations
10
1.88452
20
9.90678
0
VERTEX
8
Stations
10
1.90226
20
10.00547
0
VERTEX
8
Stations
10
1.91891
20
10.10448
0
VERTEX
8
Stations
10
1.93412
20
10.2038
0
VERTEX
8
Stations
10
1.94736
20
10.30344
0
VERTEX
8
Stations
10
1.95802
20
10.40342
0
VERTEX
8
Stations
10
1.96537
20
10.50131
0
VERTEX
8
Stations
10
1.96938
20
10.60211
0
VERTEX
8
Stations
10
1.96935
20
10.70208
0
VERTEX
8
Stations
10
1.96334
20
10.80342
0
VERTEX
8
Stations
10
1.94498
20
10.90406
0
VERTEX
8
Stations
10
1.91126
20
10.99874
0
VERTEX
8
Stations
10
1.84978
20
11.0761
0
VERTEX
8
Stations
10
1.77093
20
11.13461
0
VERTEX
8
Stations
10
1.68199
20
11.16715
0
VERTEX
8
Stations
10
1.58537
20
11.18883
0
VERTEX
8
Stations
10
1.48598
20
11.20718
0
VERTEX
8
Stations
10
1.38634
20
11.22318
0
VERTEX
8
Stations
10
1.2871
20
11.23752
0
VERTEX
8
Stations
10
1.18858
20
11.25065
0
VERTEX
8
Stations
10
1.08887
20
11.26316
0
VERTEX
8
Stations
10
0.98958
20
11.27507
0
VERTEX
8
Stations
10
0.89025
20
11.28659
0
VERTEX
8
Stations
10
0.79086
20
11.2978
0
VERTEX
8
Stations
10
0.69146
20
11.30874
0
VERTEX
8
Stations
10
0.59204
20
11.31947
0
VERTEX
8
Stations
10
0.49258
20
11.33
0
VERTEX
8
Stations
10
0.3927
20
11.34042
0
VERTEX
8
Stations
10
0.29363
20
11.35061
0
VERTEX
8
Stations
10
0.19297
20
11.36082
0
VERTEX
8
Stations
10
0.09258
20
11.37084
0
VERTEX
8
Stations
10
0.00033
20
11.37991
0
SEQEND
0
POLYLINE
8
Stations
62
135
66
1
0
VERTEX
8
Stations
10
0.00049
20
10.46351
0
VERTEX
8
Stations
10
0.10036
20
10.45837
0
VERTEX
8
Stations
10
0.20023
20
10.45321
0
VERTEX
8
Stations
10
0.30009
20
10.44804
0
VERTEX
8
Stations
10
0.39996
20
10.44284
0
VERTEX
8
Stations
10
0.49983
20
10.43761
0
VERTEX
8
Stations
10
0.59969
20
10.43233
0
VERTEX
8
Stations
10
0.69956
20
10.427
0
VERTEX
8
Stations
10
0.79944
20
10.42161
0
VERTEX
8
Stations
10
0.89932
20
10.41614
0
VERTEX
8
Stations
10
0.99922
20
10.41059
0
VERTEX
8
Stations
10
1.09915
20
10.40494
0
VERTEX
8
Stations
10
1.19877
20
10.39921
0
VERTEX
8
Stations
10
1.29861
20
10.39335
0
VERTEX
8
Stations
10
1.39844
20
10.38736
0
VERTEX
8
Stations
10
1.49828
20
10.38123
0
VERTEX
8
Stations
10
1.59813
20
10.37495
0
VERTEX
8
Stations
10
1.69801
20
10.36852
0
VERTEX
8
Stations
10
1.79793
20
10.3619
0
VERTEX
8
Stations
10
1.89792
20
10.35509
0
VERTEX
8
Stations
10
1.99802
20
10.34806
0
VERTEX
8
Stations
10
2.09701
20
10.34087
0
VERTEX
8
Stations
10
2.19684
20
10.33335
0
VERTEX
8
Stations
10
2.29671
20
10.32554
0
VERTEX
8
Stations
10
2.3966
20
10.31732
0
VERTEX
8
Stations
10
2.49647
20
10.30848
0
VERTEX
8
Stations
10
2.59628
20
10.29875
0
VERTEX
8
Stations
10
2.69599
20
10.28781
0
VERTEX
8
Stations
10
2.79554
20
10.27532
0
VERTEX
8
Stations
10
2.89487
20
10.26092
0
VERTEX
8
Stations
10
2.99401
20
10.24422
0
VERTEX
8
Stations
10
3.09044
20
10.22558
0
VERTEX
8
Stations
10
3.18891
20
10.20413
0
VERTEX
8
Stations
10
3.28783
20
10.18003
0
VERTEX
8
Stations
10
3.38364
20
10.15382
0
VERTEX
8
Stations
10
3.48116
20
10.12286
0
VERTEX
8
Stations
10
3.57292
20
10.085
0
VERTEX
8
Stations
10
3.66014
20
10.03518
0
VERTEX
8
Stations
10
3.73531
20
9.97306
0
VERTEX
8
Stations
10
3.79737
20
9.89347
0
VERTEX
8
Stations
10
3.84371
20
9.80526
0
VERTEX
8
Stations
10
3.87937
20
9.71055
0
VERTEX
8
Stations
10
3.90264
20
9.61477
0
VERTEX
8
Stations
10
3.91509
20
9.51444
0
VERTEX
8
Stations
10
3.92165
20
9.42145
0
VERTEX
8
Stations
10
3.92484
20
9.32157
0
VERTEX
8
Stations
10
3.9235
20
9.2224
0
VERTEX
8
Stations
10
3.9175
20
9.12113
0
VERTEX
8
Stations
10
3.9086
20
9.02164
0
VERTEX
8
Stations
10
3.89769
20
8.92073
0
VERTEX
8
Stations
10
3.88554
20
8.82128
0
VERTEX
8
Stations
10
3.8722
20
8.72191
0
VERTEX
8
Stations
10
3.85786
20
8.62349
0
VERTEX
8
Stations
10
3.84226
20
8.52443
0
VERTEX
8
Stations
10
3.82548
20
8.42584
0
VERTEX
8
Stations
10
3.80748
20
8.32747
0
VERTEX
8
Stations
10
3.78832
20
8.22933
0
VERTEX
8
Stations
10
3.7681
20
8.13139
0
VERTEX
8
Stations
10
3.7469
20
8.03366
0
VERTEX
8
Stations
10
3.72483
20
7.93613
0
VERTEX
8
Stations
10
3.70201
20
7.83877
0
VERTEX
8
Stations
10
3.67853
20
7.74156
0
VERTEX
8
Stations
10
3.65448
20
7.64449
0
VERTEX
8
Stations
10
3.62989
20
7.54756
0
VERTEX
8
Stations
10
3.60479
20
7.45076
0
VERTEX
8
Stations
10
3.5792
20
7.35409
0
VERTEX
8
Stations
10
3.55315
20
7.25754
0
VERTEX
8
Stations
10
3.52663
20
7.16112
0
VERTEX
8
Stations
10
3.49967
20
7.06482
0
VERTEX
8
Stations
10
3.47227
20
6.96863
0
VERTEX
8
Stations
10
3.44441
20
6.87261
0
VERTEX
8
Stations
10
3.41604
20
6.77672
0
VERTEX
8
Stations
10
3.38713
20
6.68099
0
VERTEX
8
Stations
10
3.35764
20
6.58543
0
VERTEX
8
Stations
10
3.32786
20
6.49095
0
VERTEX
8
Stations
10
3.2969
20
6.39488
0
VERTEX
8
Stations
10
3.26563
20
6.29992
0
VERTEX
8
Stations
10
3.23374
20
6.2051
0
VERTEX
8
Stations
10
3.20128
20
6.11051
0
VERTEX
8
Stations
10
3.16831
20
6.0161
0
VERTEX
8
Stations
10
3.13484
20
5.92187
0
VERTEX
8
Stations
10
3.10091
20
5.8278
0
VERTEX
8
Stations
10
3.06649
20
5.7339
0
VERTEX
8
Stations
10
3.03136
20
5.63959
0
VERTEX
8
Stations
10
2.9962
20
5.54689
0
VERTEX
8
Stations
10
2.96003
20
5.45341
0
VERTEX
8
Stations
10
2.92299
20
5.36012
0
VERTEX
8
Stations
10
2.88489
20
5.26704
0
VERTEX
8
Stations
10
2.84588
20
5.17476
0
VERTEX
8
Stations
10
2.80612
20
5.08337
0
VERTEX
8
Stations
10
2.7657
20
4.99232
0
VERTEX
8
Stations
10
2.72414
20
4.90025
0
VERTEX
8
Stations
10
2.68258
20
4.80985
0
VERTEX
8
Stations
10
2.64025
20
4.71962
0
VERTEX
8
Stations
10
2.5971
20
4.62972
0
VERTEX
8
Stations
10
2.55316
20
4.54043
0
VERTEX
8
Stations
10
2.5082
20
4.45139
0
VERTEX
8
Stations
10
2.46241
20
4.36301
0
VERTEX
8
Stations
10
2.41571
20
4.27516
0
VERTEX
8
Stations
10
2.36808
20
4.18783
0
VERTEX
8
Stations
10
2.31851
20
4.09926
0
VERTEX
8
Stations
10
2.26877
20
4.01261
0
VERTEX
8
Stations
10
2.21808
20
3.92653
0
VERTEX
8
Stations
10
2.16646
20
3.841
0
VERTEX
8
Stations
10
2.11399
20
3.75607
0
VERTEX
8
Stations
10
2.06072
20
3.67179
0
VERTEX
8
Stations
10
2.00672
20
3.58823
0
VERTEX
8
Stations
10
1.95199
20
3.50548
0
VERTEX
8
Stations
10
1.89485
20
3.42132
0
VERTEX
8
Stations
10
1.83752
20
3.33932
0
VERTEX
8
Stations
10
1.77897
20
3.25791
0
VERTEX
8
Stations
10
1.72011
20
3.17809
0
VERTEX
8
Stations
10
1.65944
20
3.0975
0
VERTEX
8
Stations
10
1.5984
20
3.0178
0
VERTEX
8
Stations
10
1.53702
20
2.93878
0
VERTEX
8
Stations
10
1.47513
20
2.86005
0
VERTEX
8
Stations
10
1.41303
20
2.78185
0
VERTEX
8
Stations
10
1.3505
20
2.70382
0
VERTEX
8
Stations
10
1.28768
20
2.62602
0
VERTEX
8
Stations
10
1.22459
20
2.54844
0
VERTEX
8
Stations
10
1.16127
20
2.47102
0
VERTEX
8
Stations
10
1.09777
20
2.39375
0
VERTEX
8
Stations
10
1.03416
20
2.31659
0
VERTEX
8
Stations
10
0.97044
20
2.23951
0
VERTEX
8
Stations
10
0.90796
20
2.16403
0
VERTEX
8
Stations
10
0.84287
20
2.08547
0
VERTEX
8
Stations
10
0.77906
20
2.00847
0
VERTEX
8
Stations
10
0.71527
20
1.93144
0
VERTEX
8
Stations
10
0.65155
20
1.85434
0
VERTEX
8
Stations
10
0.58796
20
1.77716
0
VERTEX
8
Stations
10
0.52389
20
1.69899
0
VERTEX
8
Stations
10
0.46152
20
1.62223
0
VERTEX
8
Stations
10
0.39873
20
1.54375
0
VERTEX
8
Stations
10
0.33629
20
1.4638
0
VERTEX
8
Stations
10
0.27587
20
1.38378
0
VERTEX
8
Stations
10
0.21753
20
1.30384
0
VERTEX
8
Stations
10
0.15886
20
1.22157
0
VERTEX
8
Stations
10
0.102
20
1.14072
0
VERTEX
8
Stations
10
0.04515
20
1.05925
0
VERTEX
8
Stations
10
0.0
20
0.99433
0
SEQEND
0
POLYLINE
8
Stations
62
135
66
1
0
VERTEX
8
Stations
10
0.00031
20
9.83524
0
VERTEX
8
Stations
10
0.10023
20
9.83141
0
VERTEX
8
Stations
10
0.20016
20
9.82757
0
VERTEX
8
Stations
10
0.30007
20
9.82369
0
VERTEX
8
Stations
10
0.39994
20
9.81977
0
VERTEX
8
Stations
10
0.49968
20
9.8158
0
VERTEX
8
Stations
10
0.59982
20
9.81176
0
VERTEX
8
Stations
10
0.69968
20
9.80767
0
VERTEX
8
Stations
10
0.79948
20
9.80353
0
VERTEX
8
Stations
10
0.89928
20
9.79934
0
VERTEX
8
Stations
10
0.99916
20
9.79509
0
VERTEX
8
Stations
10
1.09911
20
9.79079
0
VERTEX
8
Stations
10
1.19912
20
9.78645
0
VERTEX
8
Stations
10
1.29915
20
9.78206
0
VERTEX
8
Stations
10
1.39913
20
9.77764
0
VERTEX
8
Stations
10
1.49901
20
9.77317
0
VERTEX
8
Stations
10
1.59891
20
9.76866
0
VERTEX
8
Stations
10
1.69883
20
9.7641
0
VERTEX
8
Stations
10
1.79873
20
9.7595
0
VERTEX
8
Stations
10
1.89765
20
9.75489
0
VERTEX
8
Stations
10
1.99855
20
9.75013
0
VERTEX
8
Stations
10
2.09838
20
9.74535
0
VERTEX
8
Stations
10
2.19862
20
9.74048
0
VERTEX
8
Stations
10
2.29822
20
9.73555
0
VERTEX
8
Stations
10
2.39801
20
9.73051
0
VERTEX
8
Stations
10
2.49799
20
9.72533
0
VERTEX
8
Stations
10
2.59857
20
9.71994
0
VERTEX
8
Stations
10
2.698
20
9.7144
0
VERTEX
8
Stations
10
2.79839
20
9.70854
0
VERTEX
8
Stations
10
2.8988
20
9.70235
0
VERTEX
8
Stations
10
2.99896
20
9.6958
0
VERTEX
8
Stations
10
3.0987
20
9.68889
0
VERTEX
8
Stations
10
3.19808
20
9.68164
0
VERTEX
8
Stations
10
3.29745
20
9.67408
0
VERTEX
8
Stations
10
3.39697
20
9.66617
0
VERTEX
8
Stations
10
3.49657
20
9.65784
0
VERTEX
8
Stations
10
3.59625
20
9.64901
0
VERTEX
8
Stations
10
3.69598
20
9.63958
0
VERTEX
8
Stations
10
3.79575
20
9.62941
0
VERTEX
8
Stations
10
3.89547
20
9.61836
0
VERTEX
8
Stations
10
3.99503
20
9.60629
0
VERTEX
8
Stations
10
4.0944
20
9.59309
0
VERTEX
8
Stations
10
4.19353
20
9.57861
0
VERTEX
8
Stations
10
4.2924
20
9.56274
0
VERTEX
8
Stations
10
4.39098
20
9.54525
0
VERTEX
8
Stations
10
4.48918
20
9.52582
0
VERTEX
8
Stations
10
4.58686
20
9.50412
0
VERTEX
8
Stations
10
4.68389
20
9.47982
0
VERTEX
8
Stations
10
4.7802
20
9.45289
0
VERTEX
8
Stations
10
4.87576
20
9.4235
0
VERTEX
8
Stations
10
4.97055
20
9.39181
0
VERTEX
8
Stations
10
5.06388
20
9.35666
0
VERTEX
8
Stations
10
5.1543
20
9.31517
0
VERTEX
8
Stations
10
5.24029
20
9.26507
0
VERTEX
8
Stations
10
5.32138
20
9.20598
0
VERTEX
8
Stations
10
5.39794
20
9.1388
0
VERTEX
8
Stations
10
5.46568
20
9.06588
0
VERTEX
8
Stations
10
5.52203
20
8.98332
0
VERTEX
8
Stations
10
5.56676
20
8.89363
0
VERTEX
8
Stations
10
5.60341
20
8.8023
0
VERTEX
8
Stations
10
5.63317
20
8.7053
0
VERTEX
8
Stations
10
5.65456
20
8.60911
0
VERTEX
8
Stations
10
5.6701
20
8.51138
0
VERTEX
8
Stations
10
5.68105
20
8.41093
0
VERTEX
8
Stations
10
5.68761
20
8.3123
0
VERTEX
8
Stations
10
5.6906
20
8.21133
0
VERTEX
8
Stations
10
5.69046
20
8.11298
0
VERTEX
8
Stations
10
5.68788
20
8.01586
0
VERTEX
8
Stations
10
5.68308
20
7.91519
0
VERTEX
8
Stations
10
5.67646
20
7.81607
0
VERTEX
8
Stations
10
5.66786
20
7.71483
0
VERTEX
8
Stations
10
5.65769
20
7.61531
0
VERTEX
8
Stations
10
5.64599
20
7.51594
0
VERTEX
8
Stations
10
5.63305
20
7.4168
0
VERTEX
8
Stations
10
5.61914
20
7.3179
0
VERTEX
8
Stations
10
5.60447
20
7.21934
0
VERTEX
8
Stations
10
5.58913
20
7.12107
0
VERTEX
8
Stations
10
5.57249
20
7.02233
0
VERTEX
8
Stations
10
5.55416
20
6.92315
0
VERTEX
8
Stations
10
5.53444
20
6.82471
0
VERTEX
8
Stations
10
5.51359
20
6.72693
0
VERTEX
8
Stations
10
5.49188
20
6.62932
0
VERTEX
8
Stations
10
5.46952
20
6.53185
0
VERTEX
8
Stations
10
5.44663
20
6.43448
0
VERTEX
8
Stations
10
5.42326
20
6.33724
0
VERTEX
8
Stations
10
5.39943
20
6.24012
0
VERTEX
8
Stations
10
5.37512
20
6.14311
0
VERTEX
8
Stations
10
5.35028
20
6.04625
0
VERTEX
8
Stations
10
5.32477
20
5.94942
0
VERTEX
8
Stations
10
5.29846
20
5.85306
0
VERTEX
8
Stations
10
5.27104
20
5.757
0
VERTEX
8
Stations
10
5.24242
20
5.66168
0
VERTEX
8
Stations
10
5.21259
20
5.56699
0
VERTEX
8
Stations
10
5.18166
20
5.47214
0
VERTEX
8
Stations
10
5.14999
20
5.37692
0
VERTEX
8
Stations
10
5.11779
20
5.28197
0
VERTEX
8
Stations
10
5.08499
20
5.18741
0
VERTEX
8
Stations
10
5.05146
20
5.0933
0
VERTEX
8
Stations
10
5.01706
20
4.99976
0
VERTEX
8
Stations
10
4.98113
20
4.90532
0
VERTEX
8
Stations
10
4.94451
20
4.81234
0
VERTEX
8
Stations
10
4.90684
20
4.7198
0
VERTEX
8
Stations
10
4.86811
20
4.62766
0
VERTEX
8
Stations
10
4.82833
20
4.53599
0
VERTEX
8
Stations
10
4.78742
20
4.44482
0
VERTEX
8
Stations
10
4.74531
20
4.35422
0
VERTEX
8
Stations
10
4.7019
20
4.26426
0
VERTEX
8
Stations
10
4.65713
20
4.175
0
VERTEX
8
Stations
10
4.61099
20
4.08646
0
VERTEX
8
Stations
10
4.56347
20
3.99867
0
VERTEX
8
Stations
10
4.51459
20
3.91163
0
VERTEX
8
Stations
10
4.46436
20
3.82538
0
VERTEX
8
Stations
10
4.41277
20
3.73996
0
VERTEX
8
Stations
10
4.35976
20
3.65542
0
VERTEX
8
Stations
10
4.30533
20
3.57181
0
VERTEX
8
Stations
10
4.2483
20
3.48751
0
VERTEX
8
Stations
10
4.19082
20
3.40577
0
VERTEX
8
Stations
10
4.13187
20
3.32508
0
VERTEX
8
Stations
10
4.07145
20
3.2455
0
VERTEX
8
Stations
10
4.00956
20
3.16705
0
VERTEX
8
Stations
10
3.94623
20
3.08979
0
VERTEX
8
Stations
10
3.88144
20
3.01374
0
VERTEX
8
Stations
10
3.81522
20
2.93895
0
VERTEX
8
Stations
10
3.74757
20
2.86546
0
VERTEX
8
Stations
10
3.67852
20
2.7933
0
VERTEX
8
Stations
10
3.60809
20
2.72249
0
VERTEX
8
Stations
10
3.53631
20
2.65306
0
VERTEX
8
Stations
10
3.4632
20
2.58504
0
VERTEX
8
Stations
10
3.38881
20
2.51846
0
VERTEX
8
Stations
10
3.31313
20
2.45338
0
VERTEX
8
Stations
10
3.2362
20
2.38984
0
VERTEX
8
Stations
10
3.15804
20
2.32788
0
VERTEX
8
Stations
10
3.07867
20
2.26745
0
VERTEX
8
Stations
10
2.99818
20
2.20848
0
VERTEX
8
Stations
10
2.91666
20
2.15088
0
VERTEX
8
Stations
10
2.83216
20
2.09319
0
VERTEX
8
Stations
10
2.74887
20
2.03804
0
VERTEX
8
Stations
10
2.66499
20
1.98399
0
VERTEX
8
Stations
10
2.58066
20
1.93097
0
VERTEX
8
Stations
10
2.49603
20
1.87894
0
VERTEX
8
Stations
10
2.41097
20
1.82783
0
VERTEX
8
Stations
10
2.32496
20
1.77753
0
VERTEX
8
Stations
10
2.23776
20
1.72798
0
VERTEX
8
Stations
10
2.14954
20
1.67918
0
VERTEX
8
Stations
10
2.06073
20
1.63116
0
VERTEX
8
Stations
10
1.97182
20
1.58397
0
VERTEX
8
Stations
10
1.88433
20
1.53823
0
VERTEX
8
Stations
10
1.79469
20
1.49196
0
VERTEX
8
Stations
10
1.70514
20
1.44626
0
VERTEX
8
Stations
10
1.6156
20
1.40103
0
VERTEX
8
Stations
10
1.52602
20
1.35621
0
VERTEX
8
Stations
10
1.43718
20
1.31214
0
VERTEX
8
Stations
10
1.34706
20
1.26782
0
VERTEX
8
Stations
10
1.25696
20
1.22385
0
VERTEX
8
Stations
10
1.16683
20
1.1802
0
VERTEX
8
Stations
10
1.07663
20
1.13681
0
VERTEX
8
Stations
10
0.98637
20
1.09365
0
VERTEX
8
Stations
10
0.89604
20
1.05068
0
VERTEX
8
Stations
10
0.80565
20
1.00788
0
VERTEX
8
Stations
10
0.71519
20
0.96522
0
VERTEX
8
Stations
10
0.6248
20
0.92274
0
VERTEX
8
Stations
10
0.53418
20
0.88028
0
VERTEX
8
Stations
10
0.44355
20
0.83792
0
VERTEX
8
Stations
10
0.35291
20
0.79564
0
VERTEX
8
Stations
10
0.26225
20
0.75342
0
VERTEX
8
Stations
10
0.17158
20
0.71124
0
VERTEX
8
Stations
10
0.08089
20
0.66909
0
VERTEX
8
Stations
10
0.0
20
0.63151
0
SEQEND
0
POLYLINE
8
Stations
62
135
66
1
0
VERTEX
8
Stations
10
0.00006
20
9.3409
0
VERTEX
8
Stations
10
0.09998
20
9.33699
0
VERTEX
8
Stations
10
0.19991
20
9.33309
0
VERTEX
8
Stations
10
0.29984
20
9.32919
0
VERTEX
8
Stations
10
0.39977
20
9.32528
0
VERTEX
8
Stations
10
0.49972
20
9.32138
0
VERTEX
8
Stations
10
0.59971
20
9.31747
0
VERTEX
8
Stations
10
0.69976
20
9.31357
0
VERTEX
8
Stations
10
0.7999
20
9.30966
0
VERTEX
8
Stations
10
0.89942
20
9.30578
0
VERTEX
8
Stations
10
0.99938
20
9.30188
0
VERTEX
8
Stations
10
1.09935
20
9.29799
0
VERTEX
8
Stations
10
1.19928
20
9.29409
0
VERTEX
8
Stations
10
1.29916
20
9.29018
0
VERTEX
8
Stations
10
1.39922
20
9.28623
0
VERTEX
8
Stations
10
1.49807
20
9.28229
0
VERTEX
8
Stations
10
1.59855
20
9.27823
0
VERTEX
8
Stations
10
1.69797
20
9.27415
0
VERTEX
8
Stations
10
1.79715
20
9.27002
0
VERTEX
8
Stations
10
1.89828
20
9.26575
0
VERTEX
8
Stations
10
1.99815
20
9.26147
0
VERTEX
8
Stations
10
2.09811
20
9.25712
0
VERTEX
8
Stations
10
2.19813
20
9.25272
0
VERTEX
8
Stations
10
2.29813
20
9.24827
0
VERTEX
8
Stations
10
2.39809
20
9.24378
0
VERTEX
8
Stations
10
2.49799
20
9.23924
0
VERTEX
8
Stations
10
2.59785
20
9.23467
0
VERTEX
8
Stations
10
2.69764
20
9.23006
0
VERTEX
8
Stations
10
2.79769
20
9.2254
0
VERTEX
8
Stations
10
2.89758
20
9.2207
0
VERTEX
8
Stations
10
2.99747
20
9.21597
0
VERTEX
8
Stations
10
3.09545
20
9.21128
0
VERTEX
8
Stations
10
3.19724
20
9.20636
0
VERTEX
8
Stations
10
3.29712
20
9.20148
0
VERTEX
8
Stations
10
3.397
20
9.19654
0
VERTEX
8
Stations
10
3.49688
20
9.19154
0
VERTEX
8
Stations
10
3.59675
20
9.18647
0
VERTEX
8
Stations
10
3.69642
20
9.18133
0
VERTEX
8
Stations
10
3.79649
20
9.17607
0
VERTEX
8
Stations
10
3.89642
20
9.1707
0
VERTEX
8
Stations
10
3.99712
20
9.16513
0
VERTEX
8
Stations
10
4.09648
20
9.15943
0
VERTEX
8
Stations
10
4.19701
20
9.15341
0
VERTEX
8
Stations
10
4.29766
20
9.14707
0
VERTEX
8
Stations
10
4.39806
20
9.14037
0
VERTEX
8
Stations
10
4.49795
20
9.1333
0
VERTEX
8
Stations
10
4.59734
20
9.12586
0
VERTEX
8
Stations
10
4.69652
20
9.11808
0
VERTEX
8
Stations
10
4.79587
20
9.10992
0
VERTEX
8
Stations
10
4.89533
20
9.10131
0
VERTEX
8
Stations
10
4.99487
20
9.09216
0
VERTEX
8
Stations
10
5.09445
20
9.08238
0
VERTEX
8
Stations
10
5.19407
20
9.07184
0
VERTEX
8
Stations
10
5.29371
20
9.06038
0
VERTEX
8
Stations
10
5.39328
20
9.04787
0
VERTEX
8
Stations
10
5.49274
20
9.03422
0
VERTEX
8
Stations
10
5.59207
20
9.01935
0
VERTEX
8
Stations
10
5.69121
20
9.00319
0
VERTEX
8
Stations
10
5.78741
20
8.98618
0
VERTEX
8
Stations
10
5.8857
20
8.96727
0
VERTEX
8
Stations
10
5.98348
20
8.94639
0
VERTEX
8
Stations
10
6.08063
20
8.92295
0
VERTEX
8
Stations
10
6.17697
20
8.89648
0
VERTEX
8
Stations
10
6.27242
20
8.86656
0
VERTEX
8
Stations
10
6.36719
20
8.83306
0
VERTEX
8
Stations
10
6.46166
20
8.79573
0
VERTEX
8
Stations
10
6.55265
20
8.75521
0
VERTEX
8
Stations
10
6.64153
20
8.70866
0
VERTEX
8
Stations
10
6.72724
20
8.65116
0
VERTEX
8
Stations
10
6.80197
20
8.58816
0
VERTEX
8
Stations
10
6.87171
20
8.51804
0
VERTEX
8
Stations
10
6.93549
20
8.43854
0
VERTEX
8
Stations
10
6.98837
20
8.35531
0
VERTEX
8
Stations
10
7.03319
20
8.26725
0
VERTEX
8
Stations
10
7.07156
20
8.17315
0
VERTEX
8
Stations
10
7.10197
20
8.07923
0
VERTEX
8
Stations
10
7.12638
20
7.98326
0
VERTEX
8
Stations
10
7.14599
20
7.88321
0
VERTEX
8
Stations
10
7.16041
20
7.78546
0
VERTEX
8
Stations
10
7.17097
20
7.6869
0
VERTEX
8
Stations
10
7.17813
20
7.58779
0
VERTEX
8
Stations
10
7.18232
20
7.48833
0
VERTEX
8
Stations
10
7.18392
20
7.38658
0
VERTEX
8
Stations
10
7.18322
20
7.28729
0
VERTEX
8
Stations
10
7.18057
20
7.18784
0
VERTEX
8
Stations
10
7.1762
20
7.08833
0
VERTEX
8
Stations
10
7.17026
20
6.9888
0
VERTEX
8
Stations
10
7.16288
20
6.88929
0
VERTEX
8
Stations
10
7.15417
20
6.78983
0
VERTEX
8
Stations
10
7.14424
20
6.69045
0
VERTEX
8
Stations
10
7.13299
20
6.58972
0
VERTEX
8
Stations
10
7.12084
20
6.49086
0
VERTEX
8
Stations
10
7.10766
20
6.39206
0
VERTEX
8
Stations
10
7.09349
20
6.29333
0
VERTEX
8
Stations
10
7.07837
20
6.19469
0
VERTEX
8
Stations
10
7.06233
20
6.09615
0
VERTEX
8
Stations
10
7.04541
20
5.99774
0
VERTEX
8
Stations
10
7.02749
20
5.89882
0
VERTEX
8
Stations
10
7.009
20
5.80153
0
VERTEX
8
Stations
10
6.98947
20
5.7033
0
VERTEX
8
Stations
10
6.96916
20
5.60547
0
VERTEX
8
Stations
10
6.94803
20
5.5078
0
VERTEX
8
Stations
10
6.92609
20
5.41032
0
VERTEX
8
Stations
10
6.90333
20
5.31303
0
VERTEX
8
Stations
10
6.87976
20
5.21593
0
VERTEX
8
Stations
10
6.85537
20
5.11905
0
VERTEX
8
Stations
10
6.83015
20
5.02239
0
VERTEX
8
Stations
10
6.80409
20
4.92596
0
VERTEX
8
Stations
10
6.77717
20
4.82979
0
VERTEX
8
Stations
10
6.74939
20
4.73389
0
VERTEX
8
Stations
10
6.72072
20
4.63828
0
VERTEX
8
Stations
10
6.69073
20
4.54169
0
VERTEX
8
Stations
10
6.66014
20
4.44651
0
VERTEX
8
Stations
10
6.62858
20
4.35167
0
VERTEX
8
Stations
10
6.59601
20
4.25719
0
VERTEX
8
Stations
10
6.56237
20
4.16308
0
VERTEX
8
Stations
10
6.5276
20
4.06942
0
VERTEX
8
Stations
10
6.49163
20
3.97623
0
VERTEX
8
Stations
10
6.45439
20
3.88357
0
VERTEX
8
Stations
10
6.4158
20
3.7915
0
VERTEX
8
Stations
10
6.37579
20
3.70007
0
VERTEX
8
Stations
10
6.33428
20
3.60935
0
VERTEX
8
Stations
10
6.29117
20
3.51941
0
VERTEX
8
Stations
10
6.24642
20
3.43033
0
VERTEX
8
Stations
10
6.19993
20
3.34218
0
VERTEX
8
Stations
10
6.15064
20
3.25325
0
VERTEX
8
Stations
10
6.10032
20
3.16696
0
VERTEX
8
Stations
10
6.04807
20
3.08184
0
VERTEX
8
Stations
10
5.99386
20
2.99799
0
VERTEX
8
Stations
10
5.93761
20
2.9155
0
VERTEX
8
Stations
10
5.87931
20
2.83447
0
VERTEX
8
Stations
10
5.81892
20
2.75501
0
VERTEX
8
Stations
10
5.75644
20
2.67719
0
VERTEX
8
Stations
10
5.69188
20
2.60111
0
VERTEX
8
Stations
10
5.62525
20
2.52683
0
VERTEX
8
Stations
10
5.5566
20
2.45444
0
VERTEX
8
Stations
10
5.48596
20
2.384
0
VERTEX
8
Stations
10
5.41339
20
2.31554
0
VERTEX
8
Stations
10
5.33896
20
2.24911
0
VERTEX
8
Stations
10
5.26275
20
2.18474
0
VERTEX
8
Stations
10
5.18284
20
2.12087
0
VERTEX
8
Stations
10
5.10316
20
2.06057
0
VERTEX
8
Stations
10
5.02196
20
2.00232
0
VERTEX
8
Stations
10
4.93934
20
1.94611
0
VERTEX
8
Stations
10
4.85539
20
1.8919
0
VERTEX
8
Stations
10
4.7702
20
1.83966
0
VERTEX
8
Stations
10
4.68385
20
1.78935
0
VERTEX
8
Stations
10
4.59643
20
1.7409
0
VERTEX
8
Stations
10
4.50804
20
1.69428
0
VERTEX
8
Stations
10
4.41877
20
1.64939
0
VERTEX
8
Stations
10
4.32868
20
1.60616
0
VERTEX
8
Stations
10
4.23787
20
1.56453
0
VERTEX
8
Stations
10
4.14636
20
1.52444
0
VERTEX
8
Stations
10
4.05421
20
1.4858
0
VERTEX
8
Stations
10
3.96147
20
1.44855
0
VERTEX
8
Stations
10
3.86818
20
1.41262
0
VERTEX
8
Stations
10
3.77442
20
1.37791
0
VERTEX
8
Stations
10
3.68032
20
1.34435
0
VERTEX
8
Stations
10
3.58599
20
1.31181
0
VERTEX
8
Stations
10
3.49153
20
1.28022
0
VERTEX
8
Stations
10
3.39702
20
1.24951
0
VERTEX
8
Stations
10
3.30258
20
1.21964
0
VERTEX
8
Stations
10
3.20471
20
1.18959
0
VERTEX
8
Stations
10
3.10897
20
1.16117
0
VERTEX
8
Stations
10
3.01264
20
1.13355
0
VERTEX
8
Stations
10
2.91583
20
1.10667
0
VERTEX
8
Stations
10
2.82094
20
1.08107
0
VERTEX
8
Stations
10
2.72311
20
1.0553
0
VERTEX
8
Stations
10
2.6255
20
1.03013
0
VERTEX
8
Stations
10
2.52805
20
1.00546
0
VERTEX
8
Stations
10
2.43069
20
0.98124
0
VERTEX
8
Stations
10
2.33463
20
0.9577
0
VERTEX
8
Stations
10
2.23685
20
0.9341
0
VERTEX
8
Stations
10
2.13921
20
0.91086
0
VERTEX
8
Stations
10
2.04162
20
0.88796
0
VERTEX
8
Stations
10
1.94407
20
0.86537
0
VERTEX
8
Stations
10
1.8465
20
0.84307
0
VERTEX
8
Stations
10
1.74963
20
0.82122
0
VERTEX
8
Stations
10
1.65173
20
0.79943
0
VERTEX
8
Stations
10
1.55387
20
0.7779
0
VERTEX
8
Stations
10
1.45602
20
0.75662
0
VERTEX
8
Stations
10
1.35818
20
0.73556
0
VERTEX
8
Stations
10
1.26033
20
0.71469
0
VERTEX
8
Stations
10
1.16247
20
0.69398
0
VERTEX
8
Stations
10
1.06458
20
0.67343
0
VERTEX
8
Stations
10
0.96668
20
0.65301
0
VERTEX
8
Stations
10
0.86876
20
0.63271
0
VERTEX
8
Stations
10
0.77095
20
0.61254
0
VERTEX
8
Stations
10
0.67292
20
0.59242
0
VERTEX
8
Stations
10
0.5749
20
0.57238
0
VERTEX
8
Stations
10
0.47689
20
0.55242
0
VERTEX
8
Stations
10
0.37888
20
0.5325
0
VERTEX
8
Stations
10
0.28087
20
0.51263
0
VERTEX
8
Stations
10
0.18285
20
0.49279
0
VERTEX
8
Stations
10
0.08484
20
0.47298
0
VERTEX
8
Stations
10
0.0
20
0.45583
0
SEQEND
0
POLYLINE
8
Stations
62
135
66
1
0
VERTEX
8
Stations
10
0.0
20
8.82593
0
VERTEX
8
Stations
10
0.09996
20
8.823
0
VERTEX
8
Stations
10
0.19992
20
8.82007
0
VERTEX
8
Stations
10
0.29988
20
8.81714
0
VERTEX
8
Stations
10
0.39984
20
8.81421
0
VERTEX
8
Stations
10
0.49981
20
8.81129
0
VERTEX
8
Stations
10
0.59979
20
8.80835
0
VERTEX
8
Stations
10
0.69978
20
8.80542
0
VERTEX
8
Stations
10
0.79982
20
8.80248
0
VERTEX
8
Stations
10
0.89989
20
8.79954
0
VERTEX
8
Stations
10
0.9996
20
8.7966
0
VERTEX
8
Stations
10
1.09957
20
8.79366
0
VERTEX
8
Stations
10
1.19954
20
8.79071
0
VERTEX
8
Stations
10
1.29951
20
8.78775
0
VERTEX
8
Stations
10
1.39946
20
8.7848
0
VERTEX
8
Stations
10
1.49981
20
8.78183
0
VERTEX
8
Stations
10
1.59935
20
8.77888
0
VERTEX
8
Stations
10
1.69868
20
8.77594
0
VERTEX
8
Stations
10
1.79912
20
8.77297
0
VERTEX
8
Stations
10
1.89888
20
8.77003
0
VERTEX
8
Stations
10
1.99854
20
8.76709
0
VERTEX
8
Stations
10
2.09813
20
8.76416
0
VERTEX
8
Stations
10
2.19893
20
8.7612
0
VERTEX
8
Stations
10
2.29887
20
8.75827
0
VERTEX
8
Stations
10
2.39882
20
8.75535
0
VERTEX
8
Stations
10
2.4988
20
8.75243
0
VERTEX
8
Stations
10
2.59877
20
8.74952
0
VERTEX
8
Stations
10
2.69876
20
8.7466
0
VERTEX
8
Stations
10
2.79874
20
8.74368
0
VERTEX
8
Stations
10
2.89873
20
8.74076
0
VERTEX
8
Stations
10
2.99871
20
8.73783
0
VERTEX
8
Stations
10
3.09869
20
8.7349
0
VERTEX
8
Stations
10
3.19845
20
8.73196
0
VERTEX
8
Stations
10
3.29858
20
8.72901
0
VERTEX
8
Stations
10
3.39859
20
8.72604
0
VERTEX
8
Stations
10
3.49849
20
8.72307
0
VERTEX
8
Stations
10
3.59842
20
8.72009
0
VERTEX
8
Stations
10
3.69845
20
8.71708
0
VERTEX
8
Stations
10
3.7984
20
8.71406
0
VERTEX
8
Stations
10
3.89836
20
8.71103
0
VERTEX
8
Stations
10
3.99831
20
8.70797
0
VERTEX
8
Stations
10
4.09827
20
8.7049
0
VERTEX
8
Stations
10
4.19822
20
8.7018
0
VERTEX
8
Stations
10
4.29818
20
8.69868
0
VERTEX
8
Stations
10
4.39814
20
8.69553
0
VERTEX
8
Stations
10
4.49808
20
8.69236
0
VERTEX
8
Stations
10
4.59803
20
8.68914
0
VERTEX
8
Stations
10
4.69798
20
8.68589
0
VERTEX
8
Stations
10
4.79792
20
8.68258
0
VERTEX
8
Stations
10
4.89787
20
8.67921
0
VERTEX
8
Stations
10
4.99781
20
8.67576
0
VERTEX
8
Stations
10
5.09775
20
8.67222
0
VERTEX
8
Stations
10
5.19817
20
8.66857
0
VERTEX
8
Stations
10
5.29699
20
8.66485
0
VERTEX
8
Stations
10
5.39754
20
8.66094
0
VERTEX
8
Stations
10
5.49745
20
8.65688
0
VERTEX
8
Stations
10
5.59745
20
8.65263
0
VERTEX
8
Stations
10
5.69779
20
8.64815
0
VERTEX
8
Stations
10
5.79731
20
8.64344
0
VERTEX
8
Stations
10
5.89755
20
8.63838
0
VERTEX
8
Stations
10
5.99827
20
8.63291
0
VERTEX
8
Stations
10
6.09737
20
8.62704
0
VERTEX
8
Stations
10
6.19791
20
8.62049
0
VERTEX
8
Stations
10
6.29866
20
8.61319
0
VERTEX
8
Stations
10
6.39937
20
8.60505
0
VERTEX
8
Stations
10
6.49978
20
8.596
0
VERTEX
8
Stations
10
6.59676
20
8.58632
0
VERTEX
8
Stations
10
6.69614
20
8.57545
0
VERTEX
8
Stations
10
6.79788
20
8.56339
0
VERTEX
8
Stations
10
6.89679
20
8.55065
0
VERTEX
8
Stations
10
6.99564
20
8.53649
0
VERTEX
8
Stations
10
7.09435
20
8.52049
0
VERTEX
8
Stations
10
7.19281
20
8.50223
0
VERTEX
8
Stations
10
7.28819
20
8.4819
0
VERTEX
8
Stations
10
7.38563
20
8.45805
0
VERTEX
8
Stations
10
7.4828
20
8.43103
0
VERTEX
8
Stations
10
7.5774
20
8.40141
0
VERTEX
8
Stations
10
7.6736
20
8.36726
0
VERTEX
8
Stations
10
7.76623
20
8.3288
0
VERTEX
8
Stations
10
7.8565
20
8.28181
0
VERTEX
8
Stations
10
7.93827
20
8.22663
0
VERTEX
8
Stations
10
8.01662
20
8.16236
0
VERTEX
8
Stations
10
8.08671
20
8.09251
0
VERTEX
8
Stations
10
8.14843
20
8.01512
0
VERTEX
8
Stations
10
8.20256
20
7.92903
0
VERTEX
8
Stations
10
8.24661
20
7.84093
0
VERTEX
8
Stations
10
8.28325
20
7.74915
0
VERTEX
8
Stations
10
8.31378
20
7.65211
0
VERTEX
8
Stations
10
8.33722
20
7.55621
0
VERTEX
8
Stations
10
8.35547
20
7.45889
0
VERTEX
8
Stations
10
8.36926
20
7.36059
0
VERTEX
8
Stations
10
8.37938
20
7.25935
0
VERTEX
8
Stations
10
8.38587
20
7.16047
0
VERTEX
8
Stations
10
8.38948
20
7.06121
0
VERTEX
8
Stations
10
8.39059
20
6.96173
0
VERTEX
8
Stations
10
8.38951
20
6.86211
0
VERTEX
8
Stations
10
8.38641
20
6.76011
0
VERTEX
8
Stations
10
8.3817
20
6.66081
0
VERTEX
8
Stations
10
8.37549
20
6.56148
0
VERTEX
8
Stations
10
8.3679
20
6.46215
0
VERTEX
8
Stations
10
8.35905
20
6.36285
0
VERTEX
8
Stations
10
8.34901
20
6.2636
0
VERTEX
8
Stations
10
8.33788
20
6.16442
0
VERTEX
8
Stations
10
8.32571
20
6.06532
0
VERTEX
8
Stations
10
8.31256
20
5.96632
0
VERTEX
8
Stations
10
8.29848
20
5.86742
0
VERTEX
8
Stations
10
8.2835
20
5.76863
0
VERTEX
8
Stations
10
8.26766
20
5.66997
0
VERTEX
8
Stations
10
8.251
20
5.57143
0
VERTEX
8
Stations
10
8.23352
20
5.47302
0
VERTEX
8
Stations
10
8.21525
20
5.37474
0
VERTEX
8
Stations
10
8.19591
20
5.27509
0
VERTEX
8
Stations
10
8.17611
20
5.17721
0
VERTEX
8
Stations
10
8.15557
20
5.07947
0
VERTEX
8
Stations
10
8.13427
20
4.98186
0
VERTEX
8
Stations
10
8.11222
20
4.88441
0
VERTEX
8
Stations
10
8.08943
20
4.78712
0
VERTEX
8
Stations
10
8.06589
20
4.68999
0
VERTEX
8
Stations
10
8.04159
20
4.59303
0
VERTEX
8
Stations
10
8.01654
20
4.49626
0
VERTEX
8
Stations
10
7.99072
20
4.39969
0
VERTEX
8
Stations
10
7.96411
20
4.30332
0
VERTEX
8
Stations
10
7.93669
20
4.20718
0
VERTEX
8
Stations
10
7.90846
20
4.11126
0
VERTEX
8
Stations
10
7.87939
20
4.01558
0
VERTEX
8
Stations
10
7.84945
20
3.92018
0
VERTEX
8
Stations
10
7.8186
20
3.82505
0
VERTEX
8
Stations
10
7.78681
20
3.73024
0
VERTEX
8
Stations
10
7.75405
20
3.63575
0
VERTEX
8
Stations
10
7.72027
20
3.54162
0
VERTEX
8
Stations
10
7.6854
20
3.44789
0
VERTEX
8
Stations
10
7.64939
20
3.3546
0
VERTEX
8
Stations
10
7.61218
20
3.2618
0
VERTEX
8
Stations
10
7.57368
20
3.16954
0
VERTEX
8
Stations
10
7.53378
20
3.07789
0
VERTEX
8
Stations
10
7.49236
20
2.98696
0
VERTEX
8
Stations
10
7.44929
20
2.89682
0
VERTEX
8
Stations
10
7.40445
20
2.80761
0
VERTEX
8
Stations
10
7.35691
20
2.71794
0
VERTEX
8
Stations
10
7.30852
20
2.63154
0
VERTEX
8
Stations
10
7.25801
20
2.54626
0
VERTEX
8
Stations
10
7.20561
20
2.46275
0
VERTEX
8
Stations
10
7.15097
20
2.38065
0
VERTEX
8
Stations
10
7.09231
20
2.29778
0
VERTEX
8
Stations
10
7.03236
20
2.21831
0
VERTEX
8
Stations
10
6.96997
20
2.1408
0
VERTEX
8
Stations
10
6.90513
20
2.0654
0
VERTEX
8
Stations
10
6.83784
20
1.99221
0
VERTEX
8
Stations
10
6.76622
20
1.91947
0
VERTEX
8
Stations
10
6.69377
20
1.85081
0
VERTEX
8
Stations
10
6.61901
20
1.78468
0
VERTEX
8
Stations
10
6.54203
20
1.72113
0
VERTEX
8
Stations
10
6.46297
20
1.66018
0
VERTEX
8
Stations
10
6.38194
20
1.60185
0
VERTEX
8
Stations
10
6.29907
20
1.54613
0
VERTEX
8
Stations
10
6.21452
20
1.49298
0
VERTEX
8
Stations
10
6.12842
20
1.44233
0
VERTEX
8
Stations
10
6.04091
20
1.39412
0
VERTEX
8
Stations
10
5.95212
20
1.34827
0
VERTEX
8
Stations
10
5.86218
20
1.30468
0
VERTEX
8
Stations
10
5.7712
20
1.26325
0
VERTEX
8
Stations
10
5.67931
20
1.22388
0
VERTEX
8
Stations
10
5.58658
20
1.18645
0
VERTEX
8
Stations
10
5.49311
20
1.15088
0
VERTEX
8
Stations
10
5.39899
20
1.11707
0
VERTEX
8
Stations
10
5.30426
20
1.0849
0
VERTEX
8
Stations
10
5.20902
20
1.0543
0
VERTEX
8
Stations
10
5.11331
20
1.02516
0
VERTEX
8
Stations
10
5.01721
20
0.99738
0
VERTEX
8
Stations
10
4.92078
20
0.97085
0
VERTEX
8
Stations
10
4.82406
20
0.94548
0
VERTEX
8
Stations
10
4.72707
20
0.92117
0
VERTEX
8
Stations
10
4.62988
20
0.89784
0
VERTEX
8
Stations
10
4.53246
20
0.87544
0
VERTEX
8
Stations
10
4.43482
20
0.85391
0
VERTEX
8
Stations
10
4.33697
20
0.83323
0
VERTEX
8
Stations
10
4.23894
20
0.81334
0
VERTEX
8
Stations
10
4.14073
20
0.7942
0
VERTEX
8
Stations
10
4.04237
20
0.77578
0
VERTEX
8
Stations
10
3.94395
20
0.758
0
VERTEX
8
Stations
10
3.84555
20
0.74081
0
VERTEX
8
Stations
10
3.7472
20
0.72415
0
VERTEX
8
Stations
10
3.64894
20
0.70798
0
VERTEX
8
Stations
10
3.54818
20
0.69183
0
VERTEX
8
Stations
10
3.44976
20
0.67646
0
VERTEX
8
Stations
10
3.35129
20
0.66149
0
VERTEX
8
Stations
10
3.25253
20
0.64697
0
VERTEX
8
Stations
10
3.1534
20
0.63292
0
VERTEX
8
Stations
10
3.05393
20
0.61935
0
VERTEX
8
Stations
10
2.95425
20
0.60624
0
VERTEX
8
Stations
10
2.85456
20
0.59355
0
VERTEX
8
Stations
10
2.75613
20
0.58138
0
VERTEX
8
Stations
10
2.65607
20
0.56931
0
VERTEX
8
Stations
10
2.55639
20
0.55753
0
VERTEX
8
Stations
10
2.4569
20
0.54598
0
VERTEX
8
Stations
10
2.3578
20
0.53467
0
VERTEX
8
Stations
10
2.25816
20
0.52346
0
VERTEX
8
Stations
10
2.15871
20
0.51244
0
VERTEX
8
Stations
10
2.05931
20
0.50156
0
VERTEX
8
Stations
10
1.95988
20
0.49082
0
VERTEX
8
Stations
10
1.86044
20
0.48022
0
VERTEX
8
Stations
10
1.76085
20
0.46973
0
VERTEX
8
Stations
10
1.66179
20
0.45943
0
VERTEX
8
Stations
10
1.56206
20
0.44919
0
VERTEX
8
Stations
10
1.46255
20
0.43911
0
VERTEX
8
Stations
10
1.36305
20
0.42917
0
VERTEX
8
Stations
10
1.26352
20
0.41936
0
VERTEX
8
Stations
10
1.16399
20
0.40968
0
VERTEX
8
Stations
10
1.06445
20
0.40012
0
VERTEX
8
Stations
10
0.96474
20
0.39065
0
VERTEX
8
Stations
10
0.86525
20
0.38131
0
VERTEX
8
Stations
10
0.76571
20
0.37207
0
VERTEX
8
Stations
10
0.66614
20
0.3629
0
VERTEX
8
Stations
10
0.56657
20
0.35381
0
VERTEX
8
Stations
10
0.46698
20
0.34479
0
VERTEX
8
Stations
10
0.36738
20
0.33581
0
VERTEX
8
Stations
10
0.26779
20
0.32688
0
VERTEX
8
Stations
10
0.16818
20
0.31798
0
VERTEX
8
Stations
10
0.06857
20
0.30911
0
VERTEX
8
Stations
10
0.0
20
0.303
0
SEQEND
0
POLYLINE
8
Stations
62
135
66
1
0
VERTEX
8
Stations
10
0.0
20
8.68266
0
VERTEX
8
Stations
10
0.09994
20
8.67929
0
VERTEX
8
Stations
10
0.19989
20
8.67592
0
VERTEX
8
Stations
10
0.29983
20
8.67255
0
VERTEX
8
Stations
10
0.39978
20
8.66918
0
VERTEX
8
Stations
10
0.49973
20
8.66581
0
VERTEX
8
Stations
10
0.59968
20
8.66245
0
VERTEX
8
Stations
10
0.69963
20
8.65909
0
VERTEX
8
Stations
10
0.7996
20
8.65573
0
VERTEX
8
Stations
10
0.89958
20
8.65238
0
VERTEX
8
Stations
10
0.99957
20
8.64904
0
VERTEX
8
Stations
10
1.09959
20
8.64569
0
VERTEX
8
Stations
10
1.19962
20
8.64236
0
VERTEX
8
Stations
10
1.29963
20
8.63904
0
VERTEX
8
Stations
10
1.39959
20
8.63573
0
VERTEX
8
Stations
10
1.49948
20
8.63242
0
VERTEX
8
Stations
10
1.59931
20
8.62914
0
VERTEX
8
Stations
10
1.69912
20
8.62586
0
VERTEX
8
Stations
10
1.79889
20
8.6226
0
VERTEX
8
Stations
10
1.89896
20
8.61934
0
VERTEX
8
Stations
10
1.99887
20
8.6161
0
VERTEX
8
Stations
10
2.09877
20
8.61288
0
VERTEX
8
Stations
10
2.19865
20
8.60967
0
VERTEX
8
Stations
10
2.29852
20
8.60647
0
VERTEX
8
Stations
10
2.39841
20
8.60328
0
VERTEX
8
Stations
10
2.49834
20
8.60011
0
VERTEX
8
Stations
10
2.59829
20
8.59695
0
VERTEX
8
Stations
10
2.69826
20
8.59381
0
VERTEX
8
Stations
10
2.79825
20
8.59068
0
VERTEX
8
Stations
10
2.89825
20
8.58756
0
VERTEX
8
Stations
10
2.99826
20
8.58447
0
VERTEX
8
Stations
10
3.09827
20
8.58141
0
VERTEX
8
Stations
10
3.19828
20
8.57836
0
VERTEX
8
Stations
10
3.29827
20
8.57534
0
VERTEX
8
Stations
10
3.39826
20
8.57235
0
VERTEX
8
Stations
10
3.49822
20
8.56939
0
VERTEX
8
Stations
10
3.59817
20
8.56646
0
VERTEX
8
Stations
10
3.69813
20
8.56357
0
VERTEX
8
Stations
10
3.7981
20
8.5607
0
VERTEX
8
Stations
10
3.89806
20
8.55788
0
VERTEX
8
Stations
10
3.99803
20
8.55509
0
VERTEX
8
Stations
10
4.09799
20
8.55235
0
VERTEX
8
Stations
10
4.19796
20
8.54965
0
VERTEX
8
Stations
10
4.29792
20
8.547
0
VERTEX
8
Stations
10
4.39659
20
8.54443
0
VERTEX
8
Stations
10
4.49786
20
8.54182
0
VERTEX
8
Stations
10
4.59785
20
8.53929
0
VERTEX
8
Stations
10
4.69785
20
8.53678
0
VERTEX
8
Stations
10
4.79785
20
8.53429
0
VERTEX
8
Stations
10
4.89785
20
8.53183
0
VERTEX
8
Stations
10
4.99783
20
8.52937
0
VERTEX
8
Stations
10
5.09775
20
8.52692
0
VERTEX
8
Stations
10
5.19762
20
8.52447
0
VERTEX
8
Stations
10
5.29763
20
8.52201
0
VERTEX
8
Stations
10
5.3976
20
8.51953
0
VERTEX
8
Stations
10
5.49761
20
8.51702
0
VERTEX
8
Stations
10
5.59771
20
8.51447
0
VERTEX
8
Stations
10
5.69794
20
8.51187
0
VERTEX
8
Stations
10
5.79836
20
8.5092
0
VERTEX
8
Stations
10
5.89893
20
8.50643
0
VERTEX
8
Stations
10
5.99776
20
8.5036
0
VERTEX
8
Stations
10
6.0979
20
8.50056
0
VERTEX
8
Stations
10
6.19803
20
8.49733
0
VERTEX
8
Stations
10
6.29812
20
8.49385
0
VERTEX
8
Stations
10
6.39815
20
8.49008
0
VERTEX
8
Stations
10
6.4981
20
8.48599
0
VERTEX
8
Stations
10
6.59797
20
8.48153
0
VERTEX
8
Stations
10
6.6978
20
8.47667
0
VERTEX
8
Stations
10
6.79763
20
8.4714
0
VERTEX
8
Stations
10
6.89748
20
8.4657
0
VERTEX
8
Stations
10
6.99735
20
8.45953
0
VERTEX
8
Stations
10
7.09725
20
8.45288
0
VERTEX
8
Stations
10
7.19718
20
8.44571
0
VERTEX
8
Stations
10
7.29714
20
8.43799
0
VERTEX
8
Stations
10
7.39714
20
8.42965
0
VERTEX
8
Stations
10
7.49713
20
8.42064
0
VERTEX
8
Stations
10
7.597
20
8.4108
0
VERTEX
8
Stations
10
7.69668
20
8.39983
0
VERTEX
8
Stations
10
7.79614
20
8.38742
0
VERTEX
8
Stations
10
7.89294
20
8.3736
0
VERTEX
8
Stations
10
7.99167
20
8.35742
0
VERTEX
8
Stations
10
8.09002
20
8.3389
0
VERTEX
8
Stations
10
8.18798
20
8.31781
0
VERTEX
8
Stations
10
8.28575
20
8.29406
0
VERTEX
8
Stations
10
8.38361
20
8.26747
0
VERTEX
8
Stations
10
8.47824
20
8.23866
0
VERTEX
8
Stations
10
8.57266
20
8.20597
0
VERTEX
8
Stations
10
8.66777
20
8.16675
0
VERTEX
8
Stations
10
8.75733
20
8.11946
0
VERTEX
8
Stations
10
8.83881
20
8.06421
0
VERTEX
8
Stations
10
8.91546
20
8.00187
0
VERTEX
8
Stations
10
8.98824
20
7.93015
0
VERTEX
8
Stations
10
9.05034
20
7.85312
0
VERTEX
8
Stations
10
9.10355
20
7.76982
0
VERTEX
8
Stations
10
9.14976
20
7.67898
0
VERTEX
8
Stations
10
9.18687
20
7.58769
0
VERTEX
8
Stations
10
9.21734
20
7.49364
0
VERTEX
8
Stations
10
9.24184
20
7.39759
0
VERTEX
8
Stations
10
9.26153
20
7.29774
0
VERTEX
8
Stations
10
9.27617
20
7.19988
0
VERTEX
8
Stations
10
9.28706
20
7.10129
0
VERTEX
8
Stations
10
9.2947
20
7.00218
0
VERTEX
8
Stations
10
9.29959
20
6.90025
0
VERTEX
8
Stations
10
9.30187
20
6.80114
0
VERTEX
8
Stations
10
9.30203
20
6.70179
0
VERTEX
8
Stations
10
9.30032
20
6.60229
0
VERTEX
8
Stations
10
9.29694
20
6.50272
0
VERTEX
8
Stations
10
9.29207
20
6.40311
0
VERTEX
8
Stations
10
9.28586
20
6.30352
0
VERTEX
8
Stations
10
9.27841
20
6.20397
0
VERTEX
8
Stations
10
9.26964
20
6.10257
0
VERTEX
8
Stations
10
9.25997
20
6.00344
0
VERTEX
8
Stations
10
9.2493
20
5.90433
0
VERTEX
8
Stations
10
9.23767
20
5.80528
0
VERTEX
8
Stations
10
9.22514
20
5.7063
0
VERTEX
8
Stations
10
9.21172
20
5.60738
0
VERTEX
8
Stations
10
9.19747
20
5.50855
0
VERTEX
8
Stations
10
9.1824
20
5.40982
0
VERTEX
8
Stations
10
9.16654
20
5.31119
0
VERTEX
8
Stations
10
9.14991
20
5.21268
0
VERTEX
8
Stations
10
9.13252
20
5.11428
0
VERTEX
8
Stations
10
9.11439
20
5.016
0
VERTEX
8
Stations
10
9.09551
20
4.91784
0
VERTEX
8
Stations
10
9.07591
20
4.81984
0
VERTEX
8
Stations
10
9.05558
20
4.72197
0
VERTEX
8
Stations
10
9.03423
20
4.62292
0
VERTEX
8
Stations
10
9.01248
20
4.52556
0
VERTEX
8
Stations
10
8.98999
20
4.42834
0
VERTEX
8
Stations
10
8.96676
20
4.33129
0
VERTEX
8
Stations
10
8.94279
20
4.23442
0
VERTEX
8
Stations
10
8.91806
20
4.13774
0
VERTEX
8
Stations
10
8.89256
20
4.04126
0
VERTEX
8
Stations
10
8.86617
20
3.94462
0
VERTEX
8
Stations
10
8.83948
20
3.85002
0
VERTEX
8
Stations
10
8.81125
20
3.7532
0
VERTEX
8
Stations
10
8.78248
20
3.65773
0
VERTEX
8
Stations
10
8.75284
20
3.56258
0
VERTEX
8
Stations
10
8.72229
20
3.46777
0
VERTEX
8
Stations
10
8.69028
20
3.37182
0
VERTEX
8
Stations
10
8.65765
20
3.2774
0
VERTEX
8
Stations
10
8.62396
20
3.18337
0
VERTEX
8
Stations
10
8.58917
20
3.08978
0
VERTEX
8
Stations
10
8.55319
20
2.99668
0
VERTEX
8
Stations
10
8.51596
20
2.90413
0
VERTEX
8
Stations
10
8.47739
20
2.81219
0
VERTEX
8
Stations
10
8.43739
20
2.72096
0
VERTEX
8
Stations
10
8.39586
20
2.6305
0
VERTEX
8
Stations
10
8.35269
20
2.54091
0
VERTEX
8
Stations
10
8.30654
20
2.44999
0
VERTEX
8
Stations
10
8.25942
20
2.36205
0
VERTEX
8
Stations
10
8.21024
20
2.2753
0
VERTEX
8
Stations
10
8.15888
20
2.18987
0
VERTEX
8
Stations
10
8.1052
20
2.10594
0
VERTEX
8
Stations
10
8.04911
20
2.02368
0
VERTEX
8
Stations
10
7.99047
20
1.94327
0
VERTEX
8
Stations
10
7.92922
20
1.86488
0
VERTEX
8
Stations
10
7.86353
20
1.78661
0
VERTEX
8
Stations
10
7.79666
20
1.71256
0
VERTEX
8
Stations
10
7.7271
20
1.64104
0
VERTEX
8
Stations
10
7.65492
20
1.57219
0
VERTEX
8
Stations
10
7.58019
20
1.50611
0
VERTEX
8
Stations
10
7.50304
20
1.44288
0
VERTEX
8
Stations
10
7.42356
20
1.38256
0
VERTEX
8
Stations
10
7.34193
20
1.32519
0
VERTEX
8
Stations
10
7.2583
20
1.27072
0
VERTEX
8
Stations
10
7.17286
20
1.21911
0
VERTEX
8
Stations
10
7.08576
20
1.17029
0
VERTEX
8
Stations
10
6.99717
20
1.12418
0
VERTEX
8
Stations
10
6.90724
20
1.08067
0
VERTEX
8
Stations
10
6.81614
20
1.03963
0
VERTEX
8
Stations
10
6.72397
20
1.00094
0
VERTEX
8
Stations
10
6.63089
20
0.96446
0
VERTEX
8
Stations
10
6.53703
20
0.93004
0
VERTEX
8
Stations
10
6.4425
20
0.89753
0
VERTEX
8
Stations
10
6.34739
20
0.8668
0
VERTEX
8
Stations
10
6.25177
20
0.83771
0
VERTEX
8
Stations
10
6.15306
20
0.80944
0
VERTEX
8
Stations
10
6.05648
20
0.78338
0
VERTEX
8
Stations
10
5.96206
20
0.75934
0
VERTEX
8
Stations
10
5.86468
20
0.73592
0
VERTEX
8
Stations
10
5.76697
20
0.71369
0
VERTEX
8
Stations
10
5.66907
20
0.69256
0
VERTEX
8
Stations
10
5.57112
20
0.6724
0
VERTEX
8
Stations
10
5.47316
20
0.65309
0
VERTEX
8
Stations
10
5.37526
20
0.63455
0
VERTEX
8
Stations
10
5.27459
20
0.61617
0
VERTEX
8
Stations
10
5.17651
20
0.5989
0
VERTEX
8
Stations
10
5.07822
20
0.58225
0
VERTEX
8
Stations
10
4.97949
20
0.56631
0
VERTEX
8
Stations
10
4.88029
20
0.55112
0
VERTEX
8
Stations
10
4.78077
20
0.53667
0
VERTEX
8
Stations
10
4.68331
20
0.52321
0
VERTEX
8
Stations
10
4.5828
20
0.50994
0
VERTEX
8
Stations
10
4.48271
20
0.49724
0
VERTEX
8
Stations
10
4.383
20
0.485
0
VERTEX
8
Stations
10
4.28438
20
0.47326
0
VERTEX
8
Stations
10
4.18447
20
0.46168
0
VERTEX
8
Stations
10
4.08483
20
0.45042
0
VERTEX
8
Stations
10
3.98533
20
0.43944
0
VERTEX
8
Stations
10
3.88588
20
0.42872
0
VERTEX
8
Stations
10
3.78645
20
0.41824
0
VERTEX
8
Stations
10
3.68693
20
0.40799
0
VERTEX
8
Stations
10
3.58745
20
0.39798
0
VERTEX
8
Stations
10
3.48793
20
0.38821
0
VERTEX
8
Stations
10
3.38838
20
0.37866
0
VERTEX
8
Stations
10
3.2888
20
0.36936
0
VERTEX
8
Stations
10
3.18921
20
0.36031
0
VERTEX
8
Stations
10
3.08959
20
0.35152
0
VERTEX
8
Stations
10
2.98996
20
0.34298
0
VERTEX
8
Stations
10
2.89031
20
0.33469
0
VERTEX
8
Stations
10
2.7906
20
0.32664
0
VERTEX
8
Stations
10
2.69084
20
0.31881
0
VERTEX
8
Stations
10
2.59111
20
0.31121
0
VERTEX
8
Stations
10
2.49141
20
0.30382
0
VERTEX
8
Stations
10
2.39173
20
0.29662
0
VERTEX
8
Stations
10
2.29205
20
0.28961
0
VERTEX
8
Stations
10
2.19238
20
0.28277
0
VERTEX
8
Stations
10
2.09268
20
0.27608
0
VERTEX
8
Stations
10
1.99265
20
0.26952
0
VERTEX
8
Stations
10
1.89286
20
0.26309
0
VERTEX
8
Stations
10
1.79306
20
0.25678
0
VERTEX
8
Stations
10
1.69324
20
0.25057
0
VERTEX
8
Stations
10
1.59343
20
0.24443
0
VERTEX
8
Stations
10
1.49361
20
0.23837
0
VERTEX
8
Stations
10
1.39393
20
0.23238
0
VERTEX
8
Stations
10
1.29406
20
0.22643
0
VERTEX
8
Stations
10
1.19419
20
0.22055
0
VERTEX
8
Stations
10
1.09434
20
0.21471
0
VERTEX
8
Stations
10
0.99449
20
0.20892
0
VERTEX
8
Stations
10
0.89463
20
0.20317
0
VERTEX
8
Stations
10
0.79479
20
0.19746
0
VERTEX
8
Stations
10
0.69494
20
0.19177
0
VERTEX
8
Stations
10
0.5951
20
0.18612
0
VERTEX
8
Stations
10
0.49524
20
0.18049
0
VERTEX
8
Stations
10
0.3954
20
0.17489
0
VERTEX
8
Stations
10
0.29556
20
0.1693
0
VERTEX
8
Stations
10
0.19571
20
0.16372
0
VERTEX
8
Stations
10
0.09586
20
0.15814
0
VERTEX
8
Stations
10
0.0
20
0.1528
0
SEQEND
0
POLYLINE
8
Stations
62
135
66
1
0
VERTEX
8
Stations
10
0.0
20
9.57873
0
VERTEX
8
Stations
10
0.09973
20
9.57132
0
VERTEX
8
Stations
10
0.19945
20
9.5639
0
VERTEX
8
Stations
10
0.29918
20
9.55649
0
VERTEX
8
Stations
10
0.39891
20
9.54908
0
VERTEX
8
Stations
10
0.49863
20
9.54166
0
VERTEX
8
Stations
10
0.59836
20
9.53425
0
VERTEX
8
Stations
10
0.69808
20
9.52684
0
VERTEX
8
Stations
10
0.79781
20
9.51942
0
VERTEX
8
Stations
10
0.89754
20
9.51201
0
VERTEX
8
Stations
10
0.99727
20
9.5046
0
VERTEX
8
Stations
10
1.097
20
9.49718
0
VERTEX
8
Stations
10
1.19674
20
9.48977
0
VERTEX
8
Stations
10
1.29647
20
9.48236
0
VERTEX
8
Stations
10
1.39621
20
9.47494
0
VERTEX
8
Stations
10
1.49595
20
9.46753
0
VERTEX
8
Stations
10
1.59569
20
9.46012
0
VERTEX
8
Stations
10
1.69544
20
9.4527
0
VERTEX
8
Stations
10
1.79519
20
9.44529
0
VERTEX
8
Stations
10
1.89494
20
9.43788
0
VERTEX
8
Stations
10
1.99469
20
9.43046
0
VERTEX
8
Stations
10
2.09426
20
9.42306
0
VERTEX
8
Stations
10
2.19416
20
9.41564
0
VERTEX
8
Stations
10
2.29388
20
9.40823
0
VERTEX
8
Stations
10
2.39359
20
9.40082
0
VERTEX
8
Stations
10
2.49329
20
9.39342
0
VERTEX
8
Stations
10
2.59298
20
9.38601
0
VERTEX
8
Stations
10
2.69268
20
9.37861
0
VERTEX
8
Stations
10
2.79237
20
9.37121
0
VERTEX
8
Stations
10
2.89208
20
9.36381
0
VERTEX
8
Stations
10
2.9918
20
9.35641
0
VERTEX
8
Stations
10
3.09153
20
9.34901
0
VERTEX
8
Stations
10
3.19127
20
9.34161
0
VERTEX
8
Stations
10
3.29102
20
9.33422
0
VERTEX
8
Stations
10
3.3907
20
9.32683
0
VERTEX
8
Stations
10
3.49043
20
9.31944
0
VERTEX
8
Stations
10
3.59016
20
9.31206
0
VERTEX
8
Stations
10
3.68989
20
9.30467
0
VERTEX
8
Stations
10
3.78962
20
9.29729
0
VERTEX
8
Stations
10
3.88935
20
9.28992
0
VERTEX
8
Stations
10
3.98908
20
9.28254
0
VERTEX
8
Stations
10
4.08881
20
9.27516
0
VERTEX
8
Stations
10
4.18854
20
9.26778
0
VERTEX
8
Stations
10
4.28826
20
9.2604
0
VERTEX
8
Stations
10
4.38799
20
9.25301
0
VERTEX
8
Stations
10
4.48775
20
9.2456
0
VERTEX
8
Stations
10
4.58757
20
9.23819
0
VERTEX
8
Stations
10
4.68718
20
9.23077
0
VERTEX
8
Stations
10
4.78692
20
9.22333
0
VERTEX
8
Stations
10
4.88667
20
9.21587
0
VERTEX
8
Stations
10
4.98644
20
9.20839
0
VERTEX
8
Stations
10
5.08627
20
9.20088
0
VERTEX
8
Stations
10
5.18617
20
9.19333
0
VERTEX
8
Stations
10
5.28617
20
9.18575
0
VERTEX
8
Stations
10
5.38632
20
9.17811
0
VERTEX
8
Stations
10
5.48666
20
9.17042
0
VERTEX
8
Stations
10
5.58504
20
9.16283
0
VERTEX
8
Stations
10
5.68494
20
9.15504
0
VERTEX
8
Stations
10
5.78485
20
9.14715
0
VERTEX
8
Stations
10
5.88475
20
9.13914
0
VERTEX
8
Stations
10
5.98462
20
9.13098
0
VERTEX
8
Stations
10
6.08442
20
9.12264
0
VERTEX
8
Stations
10
6.18414
20
9.11408
0
VERTEX
8
Stations
10
6.28376
20
9.10528
0
VERTEX
8
Stations
10
6.3833
20
9.09622
0
VERTEX
8
Stations
10
6.48275
20
9.08687
0
VERTEX
8
Stations
10
6.58216
20
9.07721
0
VERTEX
8
Stations
10
6.68157
20
9.06722
0
VERTEX
8
Stations
10
6.78099
20
9.05689
0
VERTEX
8
Stations
10
6.88041
20
9.04621
0
VERTEX
8
Stations
10
6.97983
20
9.03515
0
VERTEX
8
Stations
10
7.07925
20
9.02371
0
VERTEX
8
Stations
10
7.17867
20
9.01185
0
VERTEX
8
Stations
10
7.27809
20
8.99954
0
VERTEX
8
Stations
10
7.3775
20
8.98676
0
VERTEX
8
Stations
10
7.47691
20
8.97346
0
VERTEX
8
Stations
10
7.57623
20
8.9596
0
VERTEX
8
Stations
10
7.67541
20
8.94505
0
VERTEX
8
Stations
10
7.77441
20
8.92964
0
VERTEX
8
Stations
10
7.87318
20
8.91321
0
VERTEX
8
Stations
10
7.97172
20
8.8956
0
VERTEX
8
Stations
10
8.070
20
8.87663
0
VERTEX
8
Stations
10
8.16571
20
8.85666
0
VERTEX
8
Stations
10
8.26328
20
8.83463
0
VERTEX
8
Stations
10
8.36051
20
8.81087
0
VERTEX
8
Stations
10
8.45749
20
8.78536
0
VERTEX
8
Stations
10
8.55433
20
8.7581
0
VERTEX
8
Stations
10
8.65127
20
8.72896
0
VERTEX
8
Stations
10
8.74523
20
8.69876
0
VERTEX
8
Stations
10
8.84161
20
8.66542
0
VERTEX
8
Stations
10
8.93478
20
8.63018
0
VERTEX
8
Stations
10
9.02928
20
8.58977
0
VERTEX
8
Stations
10
9.11674
20
8.54591
0
VERTEX
8
Stations
10
9.20451
20
8.49407
0
VERTEX
8
Stations
10
9.28659
20
8.43906
0
VERTEX
8
Stations
10
9.36579
20
8.37895
0
VERTEX
8
Stations
10
9.44062
20
8.3131
0
VERTEX
8
Stations
10
9.50952
20
8.24127
0
VERTEX
8
Stations
10
9.5736
20
8.16178
0
VERTEX
8
Stations
10
9.62918
20
8.07993
0
VERTEX
8
Stations
10
9.67849
20
7.994
0
VERTEX
8
Stations
10
9.72162
20
7.90466
0
VERTEX
8
Stations
10
9.75965
20
7.81011
0
VERTEX
8
Stations
10
9.79098
20
7.71625
0
VERTEX
8
Stations
10
9.81742
20
7.6207
0
VERTEX
8
Stations
10
9.83948
20
7.52387
0
VERTEX
8
Stations
10
9.85806
20
7.42358
0
VERTEX
8
Stations
10
9.87261
20
7.32558
0
VERTEX
8
Stations
10
9.88414
20
7.22699
0
VERTEX
8
Stations
10
9.893
20
7.12797
0
VERTEX
8
Stations
10
9.89946
20
7.02864
0
VERTEX
8
Stations
10
9.90389
20
6.92661
0
VERTEX
8
Stations
10
9.9063
20
6.82737
0
VERTEX
8
Stations
10
9.90706
20
6.72796
0
VERTEX
8
Stations
10
9.90631
20
6.62842
0
VERTEX
8
Stations
10
9.90418
20
6.5288
0
VERTEX
8
Stations
10
9.90078
20
6.42914
0
VERTEX
8
Stations
10
9.89621
20
6.32947
0
VERTEX
8
Stations
10
9.89056
20
6.22981
0
VERTEX
8
Stations
10
9.88387
20
6.13018
0
VERTEX
8
Stations
10
9.87605
20
6.02862
0
VERTEX
8
Stations
10
9.86746
20
5.92936
0
VERTEX
8
Stations
10
9.85797
20
5.83012
0
VERTEX
8
Stations
10
9.84763
20
5.73092
0
VERTEX
8
Stations
10
9.83646
20
5.63177
0
VERTEX
8
Stations
10
9.82447
20
5.53269
0
VERTEX
8
Stations
10
9.81169
20
5.43367
0
VERTEX
8
Stations
10
9.79814
20
5.33474
0
VERTEX
8
Stations
10
9.78382
20
5.23589
0
VERTEX
8
Stations
10
9.76875
20
5.13713
0
VERTEX
8
Stations
10
9.75293
20
5.03848
0
VERTEX
8
Stations
10
9.73637
20
4.93995
0
VERTEX
8
Stations
10
9.71906
20
4.84152
0
VERTEX
8
Stations
10
9.70102
20
4.74323
0
VERTEX
8
Stations
10
9.68196
20
4.64372
0
VERTEX
8
Stations
10
9.66248
20
4.54598
0
VERTEX
8
Stations
10
9.64223
20
4.44839
0
VERTEX
8
Stations
10
9.62123
20
4.35094
0
VERTEX
8
Stations
10
9.59945
20
4.25366
0
VERTEX
8
Stations
10
9.57688
20
4.15652
0
VERTEX
8
Stations
10
9.55353
20
4.05964
0
VERTEX
8
Stations
10
9.52936
20
3.96297
0
VERTEX
8
Stations
10
9.50435
20
3.86653
0
VERTEX
8
Stations
10
9.4785
20
3.77036
0
VERTEX
8
Stations
10
9.45176
20
3.67447
0
VERTEX
8
Stations
10
9.42355
20
3.57697
0
VERTEX
8
Stations
10
9.39482
20
3.48129
0
VERTEX
8
Stations
10
9.3651
20
3.38594
0
VERTEX
8
Stations
10
9.33434
20
3.29095
0
VERTEX
8
Stations
10
9.3025
20
3.19635
0
VERTEX
8
Stations
10
9.26953
20
3.10217
0
VERTEX
8
Stations
10
9.23535
20
3.00846
0
VERTEX
8
Stations
10
9.19994
20
2.91527
0
VERTEX
8
Stations
10
9.1632
20
2.82266
0
VERTEX
8
Stations
10
9.12505
20
2.7307
0
VERTEX
8
Stations
10
9.08442
20
2.63731
0
VERTEX
8
Stations
10
9.04292
20
2.54654
0
VERTEX
8
Stations
10
8.99964
20
2.45664
0
VERTEX
8
Stations
10
8.95447
20
2.36775
0
VERTEX
8
Stations
10
8.90729
20
2.27997
0
VERTEX
8
Stations
10
8.85798
20
2.19345
0
VERTEX
8
Stations
10
8.80643
20
2.1083
0
VERTEX
8
Stations
10
8.75254
20
2.02472
0
VERTEX
8
Stations
10
8.69468
20
1.94072
0
VERTEX
8
Stations
10
8.6355
20
1.86044
0
VERTEX
8
Stations
10
8.5737
20
1.7822
0
VERTEX
8
Stations
10
8.50922
20
1.7062
0
VERTEX
8
Stations
10
8.44205
20
1.6326
0
VERTEX
8
Stations
10
8.37221
20
1.56156
0
VERTEX
8
Stations
10
8.29978
20
1.49322
0
VERTEX
8
Stations
10
8.2248
20
1.42769
0
VERTEX
8
Stations
10
8.14736
20
1.36508
0
VERTEX
8
Stations
10
8.06761
20
1.30546
0
VERTEX
8
Stations
10
7.98315
20
1.24713
0
VERTEX
8
Stations
10
7.89895
20
1.19347
0
VERTEX
8
Stations
10
7.81291
20
1.14279
0
VERTEX
8
Stations
10
7.72523
20
1.095
0
VERTEX
8
Stations
10
7.6361
20
1.04996
0
VERTEX
8
Stations
10
7.5457
20
1.00756
0
VERTEX
8
Stations
10
7.45417
20
0.96764
0
VERTEX
8
Stations
10
7.3616
20
0.93012
0
VERTEX
8
Stations
10
7.26804
20
0.89489
0
VERTEX
8
Stations
10
7.17364
20
0.86184
0
VERTEX
8
Stations
10
7.07847
20
0.83083
0
VERTEX
8
Stations
10
6.98274
20
0.8017
0
VERTEX
8
Stations
10
6.88665
20
0.77421
0
VERTEX
8
Stations
10
6.79032
20
0.74815
0
VERTEX
8
Stations
10
6.69388
20
0.72336
0
VERTEX
8
Stations
10
6.59743
20
0.69971
0
VERTEX
8
Stations
10
6.50074
20
0.67711
0
VERTEX
8
Stations
10
6.40035
20
0.65501
0
VERTEX
8
Stations
10
6.30463
20
0.63527
0
VERTEX
8
Stations
10
6.20527
20
0.61604
0
VERTEX
8
Stations
10
6.10561
20
0.59786
0
VERTEX
8
Stations
10
6.00611
20
0.58059
0
VERTEX
8
Stations
10
5.90826
20
0.5643
0
VERTEX
8
Stations
10
5.80864
20
0.54829
0
VERTEX
8
Stations
10
5.70942
20
0.53282
0
VERTEX
8
Stations
10
5.61132
20
0.51796
0
VERTEX
8
Stations
10
5.51179
20
0.50329
0
VERTEX
8
Stations
10
5.41253
20
0.48902
0
VERTEX
8
Stations
10
5.31338
20
0.47512
0
VERTEX
8
Stations
10
5.21424
20
0.46158
0
VERTEX
8
Stations
10
5.1151
20
0.44837
0
VERTEX
8
Stations
10
5.01614
20
0.43552
0
VERTEX
8
Stations
10
4.91684
20
0.42298
0
VERTEX
8
Stations
10
4.81756
20
0.4108
0
VERTEX
8
Stations
10
4.71828
20
0.39898
0
VERTEX
8
Stations
10
4.61895
20
0.38753
0
VERTEX
8
Stations
10
4.51957
20
0.37644
0
VERTEX
8
Stations
10
4.42015
20
0.36568
0
VERTEX
8
Stations
10
4.32068
20
0.35525
0
VERTEX
8
Stations
10
4.22119
20
0.34513
0
VERTEX
8
Stations
10
4.12165
20
0.33531
0
VERTEX
8
Stations
10
4.0221
20
0.32576
0
VERTEX
8
Stations
10
3.92252
20
0.31649
0
VERTEX
8
Stations
10
3.82293
20
0.30745
0
VERTEX
8
Stations
10
3.72331
20
0.29864
0
VERTEX
8
Stations
10
3.62368
20
0.29004
0
VERTEX
8
Stations
10
3.52403
20
0.28162
0
VERTEX
8
Stations
10
3.42436
20
0.27337
0
VERTEX
8
Stations
10
3.32467
20
0.26526
0
VERTEX
8
Stations
10
3.22497
20
0.25728
0
VERTEX
8
Stations
10
3.12526
20
0.24942
0
VERTEX
8
Stations
10
3.02555
20
0.24168
0
VERTEX
8
Stations
10
2.92583
20
0.23405
0
VERTEX
8
Stations
10
2.8261
20
0.22652
0
VERTEX
8
Stations
10
2.72637
20
0.2191
0
VERTEX
8
Stations
10
2.62663
20
0.21177
0
VERTEX
8
Stations
10
2.52689
20
0.20455
0
VERTEX
8
Stations
10
2.42714
20
0.19741
0
VERTEX
8
Stations
10
2.32739
20
0.19037
0
VERTEX
8
Stations
10
2.22762
20
0.18341
0
VERTEX
8
Stations
10
2.12785
20
0.17653
0
VERTEX
8
Stations
10
2.02815
20
0.16975
0
VERTEX
8
Stations
10
1.92835
20
0.16303
0
VERTEX
8
Stations
10
1.82855
20
0.15639
0
VERTEX
8
Stations
10
1.72875
20
0.14982
0
VERTEX
8
Stations
10
1.62896
20
0.14333
0
VERTEX
8
Stations
10
1.52915
20
0.13691
0
VERTEX
8
Stations
10
1.42936
20
0.13054
0
VERTEX
8
Stations
10
1.32954
20
0.12424
0
VERTEX
8
Stations
10
1.22974
20
0.118
0
VERTEX
8
Stations
10
1.12992
20
0.1118
0
VERTEX
8
Stations
10
1.03011
20
0.10565
0
VERTEX
8
Stations
10
0.9303
20
0.09954
0
VERTEX
8
Stations
10
0.83048
20
0.09348
0
VERTEX
8
Stations
10
0.73066
20
0.08744
0
VERTEX
8
Stations
10
0.63083
20
0.08144
0
VERTEX
8
Stations
10
0.53101
20
0.07546
0
VERTEX
8
Stations
10
0.43119
20
0.0695
0
VERTEX
8
Stations
10
0.33136
20
0.06356
0
VERTEX
8
Stations
10
0.23155
20
0.05764
0
VERTEX
8
Stations
10
0.13171
20
0.05172
0
VERTEX
8
Stations
10
0.03188
20
0.04582
0
VERTEX
8
Stations
10
0.0
20
0.04393
0
SEQEND
0
POLYLINE
8
Stations
62
135
66
1
0
VERTEX
8
Stations
10
0.0
20
11.5621
0
VERTEX
8
Stations
10
0.09891
20
11.54736
0
VERTEX
8
Stations
10
0.19782
20
11.53261
0
VERTEX
8
Stations
10
0.29672
20
11.51786
0
VERTEX
8
Stations
10
0.39563
20
11.5031
0
VERTEX
8
Stations
10
0.49453
20
11.48834
0
VERTEX
8
Stations
10
0.59343
20
11.47356
0
VERTEX
8
Stations
10
0.69233
20
11.45876
0
VERTEX
8
Stations
10
0.79122
20
11.44395
0
VERTEX
8
Stations
10
0.8901
20
11.42912
0
VERTEX
8
Stations
10
0.98897
20
11.41427
0
VERTEX
8
Stations
10
1.08783
20
11.39939
0
VERTEX
8
Stations
10
1.18667
20
11.38449
0
VERTEX
8
Stations
10
1.28567
20
11.36953
0
VERTEX
8
Stations
10
1.38455
20
11.35456
0
VERTEX
8
Stations
10
1.48341
20
11.33956
0
VERTEX
8
Stations
10
1.58227
20
11.32453
0
VERTEX
8
Stations
10
1.68113
20
11.30945
0
VERTEX
8
Stations
10
1.77998
20
11.29434
0
VERTEX
8
Stations
10
1.87882
20
11.27918
0
VERTEX
8
Stations
10
1.97766
20
11.26398
0
VERTEX
8
Stations
10
2.0765
20
11.24873
0
VERTEX
8
Stations
10
2.17533
20
11.23344
0
VERTEX
8
Stations
10
2.27415
20
11.2181
0
VERTEX
8
Stations
10
2.37296
20
11.2027
0
VERTEX
8
Stations
10
2.47177
20
11.18726
0
VERTEX
8
Stations
10
2.57056
20
11.17177
0
VERTEX
8
Stations
10
2.66958
20
11.15618
0
VERTEX
8
Stations
10
2.76761
20
11.1407
0
VERTEX
8
Stations
10
2.86689
20
11.12496
0
VERTEX
8
Stations
10
2.96565
20
11.10926
0
VERTEX
8
Stations
10
3.0644
20
11.0935
0
VERTEX
8
Stations
10
3.16315
20
11.0777
0
VERTEX
8
Stations
10
3.2619
20
11.06184
0
VERTEX
8
Stations
10
3.36064
20
11.04593
0
VERTEX
8
Stations
10
3.45936
20
11.02996
0
VERTEX
8
Stations
10
3.55807
20
11.01395
0
VERTEX
8
Stations
10
3.65675
20
10.99788
0
VERTEX
8
Stations
10
3.75541
20
10.98177
0
VERTEX
8
Stations
10
3.85414
20
10.96558
0
VERTEX
8
Stations
10
3.9528
20
10.94935
0
VERTEX
8
Stations
10
4.05147
20
10.93305
0
VERTEX
8
Stations
10
4.15015
20
10.91668
0
VERTEX
8
Stations
10
4.24886
20
10.90025
0
VERTEX
8
Stations
10
4.34761
20
10.88373
0
VERTEX
8
Stations
10
4.44644
20
10.86713
0
VERTEX
8
Stations
10
4.54541
20
10.85042
0
VERTEX
8
Stations
10
4.64335
20
10.8338
0
VERTEX
8
Stations
10
4.74206
20
10.81696
0
VERTEX
8
Stations
10
4.84084
20
10.80
0
VERTEX
8
Stations
10
4.93972
20
10.78291
0
VERTEX
8
Stations
10
5.03875
20
10.76566
0
VERTEX
8
Stations
10
5.13787
20
10.74825
0
VERTEX
8
Stations
10
5.23705
20
10.73067
0
VERTEX
8
Stations
10
5.33371
20
10.71336
0
VERTEX
8
Stations
10
5.43237
20
10.69549
0
VERTEX
8
Stations
10
5.53099
20
10.67741
0
VERTEX
8
Stations
10
5.62952
20
10.6591
0
VERTEX
8
Stations
10
5.72793
20
10.64057
0
VERTEX
8
Stations
10
5.82622
20
10.62179
0
VERTEX
8
Stations
10
5.92436
20
10.60277
0
VERTEX
8
Stations
10
6.02238
20
10.58351
0
VERTEX
8
Stations
10
6.12028
20
10.56402
0
VERTEX
8
Stations
10
6.21811
20
10.54429
0
VERTEX
8
Stations
10
6.31592
20
10.52429
0
VERTEX
8
Stations
10
6.41368
20
10.50397
0
VERTEX
8
Stations
10
6.51372
20
10.48278
0
VERTEX
8
Stations
10
6.61116
20
10.46169
0
VERTEX
8
Stations
10
6.70855
20
10.4401
0
VERTEX
8
Stations
10
6.80585
20
10.41798
0
VERTEX
8
Stations
10
6.90308
20
10.39527
0
VERTEX
8
Stations
10
7.00021
20
10.37191
0
VERTEX
8
Stations
10
7.09722
20
10.34787
0
VERTEX
8
Stations
10
7.19411
20
10.32309
0
VERTEX
8
Stations
10
7.29091
20
10.29751
0
VERTEX
8
Stations
10
7.38568
20
10.27168
0
VERTEX
8
Stations
10
7.48209
20
10.24463
0
VERTEX
8
Stations
10
7.5784
20
10.21684
0
VERTEX
8
Stations
10
7.67466
20
10.18831
0
VERTEX
8
Stations
10
7.77098
20
10.15898
0
VERTEX
8
Stations
10
7.86755
20
10.12877
0
VERTEX
8
Stations
10
7.96117
20
10.09865
0
VERTEX
8
Stations
10
8.05726
20
10.06676
0
VERTEX
8
Stations
10
8.15098
20
10.03454
0
VERTEX
8
Stations
10
8.24655
20
10.00027
0
VERTEX
8
Stations
10
8.34146
20
9.96436
0
VERTEX
8
Stations
10
8.43492
20
9.92675
0
VERTEX
8
Stations
10
8.52657
20
9.88748
0
VERTEX
8
Stations
10
8.61686
20
9.84667
0
VERTEX
8
Stations
10
8.70669
20
9.80424
0
VERTEX
8
Stations
10
8.79603
20
9.76003
0
VERTEX
8
Stations
10
8.88461
20
9.71383
0
VERTEX
8
Stations
10
8.97214
20
9.66533
0
VERTEX
8
Stations
10
9.05817
20
9.61426
0
VERTEX
8
Stations
10
9.14241
20
9.56047
0
VERTEX
8
Stations
10
9.22467
20
9.50385
0
VERTEX
8
Stations
10
9.30479
20
9.44434
0
VERTEX
8
Stations
10
9.3826
20
9.38184
0
VERTEX
8
Stations
10
9.46004
20
9.31427
0
VERTEX
8
Stations
10
9.53218
20
9.24558
0
VERTEX
8
Stations
10
9.60111
20
9.17371
0
VERTEX
8
Stations
10
9.66658
20
9.0987
0
VERTEX
8
Stations
10
9.7284
20
9.02067
0
VERTEX
8
Stations
10
9.78639
20
8.93975
0
VERTEX
8
Stations
10
9.84042
20
8.85614
0
VERTEX
8
Stations
10
9.89047
20
8.77006
0
VERTEX
8
Stations
10
9.93782
20
8.67909
0
VERTEX
8
Stations
10
9.97962
20
8.58905
0
VERTEX
8
Stations
10
10.01758
20
8.49726
0
VERTEX
8
Stations
10
10.05186
20
8.40397
0
VERTEX
8
Stations
10
10.08263
20
8.30937
0
VERTEX
8
Stations
10
10.11004
20
8.21369
0
VERTEX
8
Stations
10
10.13432
20
8.11711
0
VERTEX
8
Stations
10
10.15618
20
8.0172
0
VERTEX
8
Stations
10
10.17465
20
7.91961
0
VERTEX
8
Stations
10
10.19062
20
7.82148
0
VERTEX
8
Stations
10
10.20426
20
7.72292
0
VERTEX
8
Stations
10
10.21574
20
7.624
0
VERTEX
8
Stations
10
10.22524
20
7.52482
0
VERTEX
8
Stations
10
10.2329
20
7.42541
0
VERTEX
8
Stations
10
10.23888
20
7.32583
0
VERTEX
8
Stations
10
10.24337
20
7.22394
0
VERTEX
8
Stations
10
10.2463
20
7.12448
0
VERTEX
8
Stations
10
10.24793
20
7.02491
0
VERTEX
8
Stations
10
10.24833
20
6.92525
0
VERTEX
8
Stations
10
10.24759
20
6.82555
0
VERTEX
8
Stations
10
10.24576
20
6.7258
0
VERTEX
8
Stations
10
10.24289
20
6.62603
0
VERTEX
8
Stations
10
10.23904
20
6.52628
0
VERTEX
8
Stations
10
10.23426
20
6.42652
0
VERTEX
8
Stations
10
10.22857
20
6.3268
0
VERTEX
8
Stations
10
10.222
20
6.22712
0
VERTEX
8
Stations
10
10.21457
20
6.12747
0
VERTEX
8
Stations
10
10.20616
20
6.02606
0
VERTEX
8
Stations
10
10.1971
20
5.92673
0
VERTEX
8
Stations
10
10.18724
20
5.82743
0
VERTEX
8
Stations
10
10.1766
20
5.72819
0
VERTEX
8
Stations
10
10.16519
20
5.62902
0
VERTEX
8
Stations
10
10.15301
20
5.52991
0
VERTEX
8
Stations
10
10.14008
20
5.4309
0
VERTEX
8
Stations
10
10.12638
20
5.33196
0
VERTEX
8
Stations
10
10.11194
20
5.23311
0
VERTEX
8
Stations
10
10.09674
20
5.13437
0
VERTEX
8
Stations
10
10.08079
20
5.03573
0
VERTEX
8
Stations
10
10.06407
20
4.93723
0
VERTEX
8
Stations
10
10.04659
20
4.83883
0
VERTEX
8
Stations
10
10.02834
20
4.74059
0
VERTEX
8
Stations
10
10.0093
20
4.64248
0
VERTEX
8
Stations
10
9.98948
20
4.54453
0
VERTEX
8
Stations
10
9.96885
20
4.44673
0
VERTEX
8
Stations
10
9.9471
20
4.34779
0
VERTEX
8
Stations
10
9.92487
20
4.25067
0
VERTEX
8
Stations
10
9.90179
20
4.15376
0
VERTEX
8
Stations
10
9.87785
20
4.05706
0
VERTEX
8
Stations
10
9.8529
20
3.96016
0
VERTEX
8
Stations
10
9.82726
20
3.86441
0
VERTEX
8
Stations
10
9.80056
20
3.76852
0
VERTEX
8
Stations
10
9.77289
20
3.67296
0
VERTEX
8
Stations
10
9.74423
20
3.57777
0
VERTEX
8
Stations
10
9.7139
20
3.48096
0
VERTEX
8
Stations
10
9.68292
20
3.38604
0
VERTEX
8
Stations
10
9.65079
20
3.29152
0
VERTEX
8
Stations
10
9.61746
20
3.19747
0
VERTEX
8
Stations
10
9.58286
20
3.10391
0
VERTEX
8
Stations
10
9.54695
20
3.01089
0
VERTEX
8
Stations
10
9.50965
20
2.91848
0
VERTEX
8
Stations
10
9.47089
20
2.82675
0
VERTEX
8
Stations
10
9.43057
20
2.73577
0
VERTEX
8
Stations
10
9.3875
20
2.64335
0
VERTEX
8
Stations
10
9.3435
20
2.55378
0
VERTEX
8
Stations
10
9.2976
20
2.46522
0
VERTEX
8
Stations
10
9.24968
20
2.37778
0
VERTEX
8
Stations
10
9.19966
20
2.29159
0
VERTEX
8
Stations
10
9.14746
20
2.20678
0
VERTEX
8
Stations
10
9.09297
20
2.12348
0
VERTEX
8
Stations
10
9.03613
20
2.04183
0
VERTEX
8
Stations
10
8.97527
20
1.95988
0
VERTEX
8
Stations
10
8.91327
20
1.88172
0
VERTEX
8
Stations
10
8.84878
20
1.80565
0
VERTEX
8
Stations
10
8.78176
20
1.73181
0
VERTEX
8
Stations
10
8.71225
20
1.66034
0
VERTEX
8
Stations
10
8.64031
20
1.59134
0
VERTEX
8
Stations
10
8.56601
20
1.52492
0
VERTEX
8
Stations
10
8.48943
20
1.46115
0
VERTEX
8
Stations
10
8.41066
20
1.4001
0
VERTEX
8
Stations
10
8.32983
20
1.3418
0
VERTEX
8
Stations
10
8.24708
20
1.28625
0
VERTEX
8
Stations
10
8.16003
20
1.23192
0
VERTEX
8
Stations
10
8.07364
20
1.18179
0
VERTEX
8
Stations
10
7.98576
20
1.13429
0
VERTEX
8
Stations
10
7.89659
20
1.08931
0
VERTEX
8
Stations
10
7.80623
20
1.04672
0
VERTEX
8
Stations
10
7.71485
20
1.00643
0
VERTEX
8
Stations
10
7.6225
20
0.96833
0
VERTEX
8
Stations
10
7.52927
20
0.93234
0
VERTEX
8
Stations
10
7.43523
20
0.89839
0
VERTEX
8
Stations
10
7.34045
20
0.86637
0
VERTEX
8
Stations
10
7.24503
20
0.83617
0
VERTEX
8
Stations
10
7.14916
20
0.80763
0
VERTEX
8
Stations
10
7.05298
20
0.78055
0
VERTEX
8
Stations
10
6.95659
20
0.75475
0
VERTEX
8
Stations
10
6.86008
20
0.7301
0
VERTEX
8
Stations
10
6.76357
20
0.7065
0
VERTEX
8
Stations
10
6.66683
20
0.68388
0
VERTEX
8
Stations
10
6.56935
20
0.66231
0
VERTEX
8
Stations
10
6.47096
20
0.64183
0
VERTEX
8
Stations
10
6.37182
20
0.62245
0
VERTEX
8
Stations
10
6.27233
20
0.60409
0
VERTEX
8
Stations
10
6.1729
20
0.58664
0
VERTEX
8
Stations
10
6.07513
20
0.5702
0
VERTEX
8
Stations
10
5.97548
20
0.55403
0
VERTEX
8
Stations
10
5.87625
20
0.53844
0
VERTEX
8
Stations
10
5.77824
20
0.52347
0
VERTEX
8
Stations
10
5.67868
20
0.50868
0
VERTEX
8
Stations
10
5.57939
20
0.4943
0
VERTEX
8
Stations
10
5.48024
20
0.4803
0
VERTEX
8
Stations
10
5.38112
20
0.46666
0
VERTEX
8
Stations
10
5.28198
20
0.45335
0
VERTEX
8
Stations
10
5.18301
20
0.44041
0
VERTEX
8
Stations
10
5.08371
20
0.42776
0
VERTEX
8
Stations
10
4.98444
20
0.41547
0
VERTEX
8
Stations
10
4.88515
20
0.40354
0
VERTEX
8
Stations
10
4.78583
20
0.39199
0
VERTEX
8
Stations
10
4.68649
20
0.3808
0
VERTEX
8
Stations
10
4.58709
20
0.36996
0
VERTEX
8
Stations
10
4.48763
20
0.35946
0
VERTEX
8
Stations
10
4.38814
20
0.3493
0
VERTEX
8
Stations
10
4.28861
20
0.33944
0
VERTEX
8
Stations
10
4.18907
20
0.32989
0
VERTEX
8
Stations
10
4.0895
20
0.32062
0
VERTEX
8
Stations
10
3.98989
20
0.31162
0
VERTEX
8
Stations
10
3.89027
20
0.30287
0
VERTEX
8
Stations
10
3.79064
20
0.29435
0
VERTEX
8
Stations
10
3.69099
20
0.28604
0
VERTEX
8
Stations
10
3.59131
20
0.27792
0
VERTEX
8
Stations
10
3.49162
20
0.26997
0
VERTEX
8
Stations
10
3.3919
20
0.26218
0
VERTEX
8
Stations
10
3.29218
20
0.25452
0
VERTEX
8
Stations
10
3.19245
20
0.24698
0
VERTEX
8
Stations
10
3.09271
20
0.23957
0
VERTEX
8
Stations
10
2.99297
20
0.23227
0
VERTEX
8
Stations
10
2.89322
20
0.22509
0
VERTEX
8
Stations
10
2.79346
20
0.21801
0
VERTEX
8
Stations
10
2.6937
20
0.21105
0
VERTEX
8
Stations
10
2.59392
20
0.20418
0
VERTEX
8
Stations
10
2.49415
20
0.19741
0
VERTEX
8
Stations
10
2.39437
20
0.19074
0
VERTEX
8
Stations
10
2.2946
20
0.18416
0
VERTEX
8
Stations
10
2.19488
20
0.17768
0
VERTEX
8
Stations
10
2.09506
20
0.17128
0
VERTEX
8
Stations
10
1.99523
20
0.16496
0
VERTEX
8
Stations
10
1.89542
20
0.15872
0
VERTEX
8
Stations
10
1.7956
20
0.15257
0
VERTEX
8
Stations
10
1.69577
20
0.14649
0
VERTEX
8
Stations
10
1.59594
20
0.14049
0
VERTEX
8
Stations
10
1.49612
20
0.13456
0
VERTEX
8
Stations
10
1.39629
20
0.12869
0
VERTEX
8
Stations
10
1.29643
20
0.12289
0
VERTEX
8
Stations
10
1.19662
20
0.11714
0
VERTEX
8
Stations
10
1.09678
20
0.11145
0
VERTEX
8
Stations
10
0.99695
20
0.1058
0
VERTEX
8
Stations
10
0.89708
20
0.1002
0
VERTEX
8
Stations
10
0.79723
20
0.09464
0
VERTEX
8
Stations
10
0.69738
20
0.08911
0
VERTEX
8
Stations
10
0.59754
20
0.08361
0
VERTEX
8
Stations
10
0.49768
20
0.07814
0
VERTEX
8
Stations
10
0.39783
20
0.07269
0
VERTEX
8
Stations
10
0.29797
20
0.06726
0
VERTEX
8
Stations
10
0.19811
20
0.06183
0
VERTEX
8
Stations
10
0.09826
20
0.05642
0
VERTEX
8
Stations
10
0.0
20
0.0511
0
SEQEND
0
POLYLINE
8
Stations
62
135
66
1
0
VERTEX
8
Stations
10
0.0
20
12.42488
0
VERTEX
8
Stations
10
0.09851
20
12.40768
0
VERTEX
8
Stations
10
0.19702
20
12.39048
0
VERTEX
8
Stations
10
0.29553
20
12.37327
0
VERTEX
8
Stations
10
0.39405
20
12.35606
0
VERTEX
8
Stations
10
0.49257
20
12.33884
0
VERTEX
8
Stations
10
0.59111
20
12.32161
0
VERTEX
8
Stations
10
0.68968
20
12.30437
0
VERTEX
8
Stations
10
0.78807
20
12.28715
0
VERTEX
8
Stations
10
0.88657
20
12.2699
0
VERTEX
8
Stations
10
0.98508
20
12.25263
0
VERTEX
8
Stations
10
1.0836
20
12.23535
0
VERTEX
8
Stations
10
1.18212
20
12.21805
0
VERTEX
8
Stations
10
1.28066
20
12.20073
0
VERTEX
8
Stations
10
1.37922
20
12.18338
0
VERTEX
8
Stations
10
1.47782
20
12.16601
0
VERTEX
8
Stations
10
1.57649
20
12.1486
0
VERTEX
8
Stations
10
1.67524
20
12.13114
0
VERTEX
8
Stations
10
1.77304
20
12.11382
0
VERTEX
8
Stations
10
1.87156
20
12.09633
0
VERTEX
8
Stations
10
1.97011
20
12.07881
0
VERTEX
8
Stations
10
2.06869
20
12.06123
0
VERTEX
8
Stations
10
2.16733
20
12.04359
0
VERTEX
8
Stations
10
2.26605
20
12.02589
0
VERTEX
8
Stations
10
2.36486
20
12.0081
0
VERTEX
8
Stations
10
2.46379
20
11.99022
0
VERTEX
8
Stations
10
2.56086
20
11.97261
0
VERTEX
8
Stations
10
2.65943
20
11.95462
0
VERTEX
8
Stations
10
2.758
20
11.93654
0
VERTEX
8
Stations
10
2.85654
20
11.91835
0
VERTEX
8
Stations
10
2.95505
20
11.90004
0
VERTEX
8
Stations
10
3.05349
20
11.88161
0
VERTEX
8
Stations
10
3.15185
20
11.86307
0
VERTEX
8
Stations
10
3.25012
20
11.84439
0
VERTEX
8
Stations
10
3.3483
20
11.82558
0
VERTEX
8
Stations
10
3.44639
20
11.80663
0
VERTEX
8
Stations
10
3.54439
20
11.78755
0
VERTEX
8
Stations
10
3.64234
20
11.76834
0
VERTEX
8
Stations
10
3.74025
20
11.74899
0
VERTEX
8
Stations
10
3.83814
20
11.72952
0
VERTEX
8
Stations
10
3.93791
20
11.70954
0
VERTEX
8
Stations
10
4.03559
20
11.68987
0
VERTEX
8
Stations
10
4.13333
20
11.67007
0
VERTEX
8
Stations
10
4.23111
20
11.65013
0
VERTEX
8
Stations
10
4.32891
20
11.63007
0
VERTEX
8
Stations
10
4.42672
20
11.60989
0
VERTEX
8
Stations
10
4.52455
20
11.58958
0
VERTEX
8
Stations
10
4.62238
20
11.56913
0
VERTEX
8
Stations
10
4.72023
20
11.54856
0
VERTEX
8
Stations
10
4.81807
20
11.52784
0
VERTEX
8
Stations
10
4.91592
20
11.50697
0
VERTEX
8
Stations
10
5.01377
20
11.48596
0
VERTEX
8
Stations
10
5.1116
20
11.46479
0
VERTEX
8
Stations
10
5.20937
20
11.44343
0
VERTEX
8
Stations
10
5.30709
20
11.42185
0
VERTEX
8
Stations
10
5.40474
20
11.40001
0
VERTEX
8
Stations
10
5.50229
20
11.3779
0
VERTEX
8
Stations
10
5.59972
20
11.35546
0
VERTEX
8
Stations
10
5.69703
20
11.33269
0
VERTEX
8
Stations
10
5.79421
20
11.30954
0
VERTEX
8
Stations
10
5.89126
20
11.28599
0
VERTEX
8
Stations
10
5.9882
20
11.26202
0
VERTEX
8
Stations
10
6.08504
20
11.2376
0
VERTEX
8
Stations
10
6.1818
20
11.21271
0
VERTEX
8
Stations
10
6.27851
20
11.18734
0
VERTEX
8
Stations
10
6.37522
20
11.1615
0
VERTEX
8
Stations
10
6.47195
20
11.13521
0
VERTEX
8
Stations
10
6.56734
20
11.10885
0
VERTEX
8
Stations
10
6.66374
20
11.08178
0
VERTEX
8
Stations
10
6.76013
20
11.05427
0
VERTEX
8
Stations
10
6.85661
20
11.02628
0
VERTEX
8
Stations
10
6.95336
20
10.99772
0
VERTEX
8
Stations
10
7.04804
20
10.96926
0
VERTEX
8
Stations
10
7.14445
20
10.93968
0
VERTEX
8
Stations
10
7.24133
20
10.90922
0
VERTEX
8
Stations
10
7.33525
20
10.87882
0
VERTEX
8
Stations
10
7.43098
20
10.84674
0
VERTEX
8
Stations
10
7.52598
20
10.8136
0
VERTEX
8
Stations
10
7.61997
20
10.77944
0
VERTEX
8
Stations
10
7.71305
20
10.74434
0
VERTEX
8
Stations
10
7.80573
20
10.70837
0
VERTEX
8
Stations
10
7.89829
20
10.67145
0
VERTEX
8
Stations
10
7.99324
20
10.63244
0
VERTEX
8
Stations
10
8.08518
20
10.5934
0
VERTEX
8
Stations
10
8.17677
20
10.55307
0
VERTEX
8
Stations
10
8.26516
20
10.51254
0
VERTEX
8
Stations
10
8.35539
20
10.46934
0
VERTEX
8
Stations
10
8.44734
20
10.42324
0
VERTEX
8
Stations
10
8.53578
20
10.37678
0
VERTEX
8
Stations
10
8.62327
20
10.3286
0
VERTEX
8
Stations
10
8.70976
20
10.27864
0
VERTEX
8
Stations
10
8.79515
20
10.22674
0
VERTEX
8
Stations
10
8.87926
20
10.17278
0
VERTEX
8
Stations
10
8.96193
20
10.11661
0
VERTEX
8
Stations
10
9.04294
20
10.05812
0
VERTEX
8
Stations
10
9.12212
20
9.9972
0
VERTEX
8
Stations
10
9.19928
20
9.93379
0
VERTEX
8
Stations
10
9.27424
20
9.86784
0
VERTEX
8
Stations
10
9.34681
20
9.7993
0
VERTEX
8
Stations
10
9.4168
20
9.72815
0
VERTEX
8
Stations
10
9.48404
20
9.65441
0
VERTEX
8
Stations
10
9.54833
20
9.57811
0
VERTEX
8
Stations
10
9.6095
20
9.49931
0
VERTEX
8
Stations
10
9.66744
20
9.41811
0
VERTEX
8
Stations
10
9.72204
20
9.33462
0
VERTEX
8
Stations
10
9.77322
20
9.249
0
VERTEX
8
Stations
10
9.82093
20
9.16139
0
VERTEX
8
Stations
10
9.8663
20
9.0696
0
VERTEX
8
Stations
10
9.90692
20
8.97877
0
VERTEX
8
Stations
10
9.94419
20
8.88649
0
VERTEX
8
Stations
10
9.9782
20
8.79291
0
VERTEX
8
Stations
10
10.00906
20
8.69821
0
VERTEX
8
Stations
10
10.03689
20
8.60253
0
VERTEX
8
Stations
10
10.06182
20
8.50601
0
VERTEX
8
Stations
10
10.084
20
8.40878
0
VERTEX
8
Stations
10
10.10358
20
8.31096
0
VERTEX
8
Stations
10
10.12106
20
8.21035
0
VERTEX
8
Stations
10
10.13577
20
8.11195
0
VERTEX
8
Stations
10
10.14834
20
8.01318
0
VERTEX
8
Stations
10
10.15888
20
7.91413
0
VERTEX
8
Stations
10
10.16754
20
7.81483
0
VERTEX
8
Stations
10
10.17444
20
7.71535
0
VERTEX
8
Stations
10
10.1797
20
7.61573
0
VERTEX
8
Stations
10
10.18341
20
7.516
0
VERTEX
8
Stations
10
10.18569
20
7.41618
0
VERTEX
8
Stations
10
10.18663
20
7.31633
0
VERTEX
8
Stations
10
10.18631
20
7.21451
0
VERTEX
8
Stations
10
10.18482
20
7.1149
0
VERTEX
8
Stations
10
10.18223
20
7.01525
0
VERTEX
8
Stations
10
10.17858
20
6.91557
0
VERTEX
8
Stations
10
10.17393
20
6.81591
0
VERTEX
8
Stations
10
10.16832
20
6.71626
0
VERTEX
8
Stations
10
10.16179
20
6.61662
0
VERTEX
8
Stations
10
10.15435
20
6.51703
0
VERTEX
8
Stations
10
10.14605
20
6.41748
0
VERTEX
8
Stations
10
10.13689
20
6.318
0
VERTEX
8
Stations
10
10.12691
20
6.21858
0
VERTEX
8
Stations
10
10.11611
20
6.11923
0
VERTEX
8
Stations
10
10.10451
20
6.01996
0
VERTEX
8
Stations
10
10.09213
20
5.92079
0
VERTEX
8
Stations
10
10.07897
20
5.82169
0
VERTEX
8
Stations
10
10.06504
20
5.7227
0
VERTEX
8
Stations
10
10.05035
20
5.62382
0
VERTEX
8
Stations
10
10.03489
20
5.52505
0
VERTEX
8
Stations
10
10.01851
20
5.42532
0
VERTEX
8
Stations
10
10.00156
20
5.32695
0
VERTEX
8
Stations
10
9.98386
20
5.22869
0
VERTEX
8
Stations
10
9.96539
20
5.13056
0
VERTEX
8
Stations
10
9.94616
20
5.03257
0
VERTEX
8
Stations
10
9.92616
20
4.93473
0
VERTEX
8
Stations
10
9.90539
20
4.83704
0
VERTEX
8
Stations
10
9.88383
20
4.73952
0
VERTEX
8
Stations
10
9.86133
20
4.6416
0
VERTEX
8
Stations
10
9.83841
20
4.54549
0
VERTEX
8
Stations
10
9.81432
20
4.4481
0
VERTEX
8
Stations
10
9.7895
20
4.3514
0
VERTEX
8
Stations
10
9.76382
20
4.25491
0
VERTEX
8
Stations
10
9.73728
20
4.15869
0
VERTEX
8
Stations
10
9.70984
20
4.06275
0
VERTEX
8
Stations
10
9.68148
20
3.9671
0
VERTEX
8
Stations
10
9.65219
20
3.87177
0
VERTEX
8
Stations
10
9.62146
20
3.77535
0
VERTEX
8
Stations
10
9.59009
20
3.68046
0
VERTEX
8
Stations
10
9.55767
20
3.58592
0
VERTEX
8
Stations
10
9.52416
20
3.49179
0
VERTEX
8
Stations
10
9.48952
20
3.39808
0
VERTEX
8
Stations
10
9.45369
20
3.30484
0
VERTEX
8
Stations
10
9.41664
20
3.21211
0
VERTEX
8
Stations
10
9.3783
20
3.11992
0
VERTEX
8
Stations
10
9.33862
20
3.02834
0
VERTEX
8
Stations
10
9.29751
20
2.93742
0
VERTEX
8
Stations
10
9.25491
20
2.84726
0
VERTEX
8
Stations
10
9.21072
20
2.75791
0
VERTEX
8
Stations
10
9.16487
20
2.66949
0
VERTEX
8
Stations
10
9.11621
20
2.58014
0
VERTEX
8
Stations
10
9.06656
20
2.4935
0
VERTEX
8
Stations
10
9.01498
20
2.40803
0
VERTEX
8
Stations
10
8.96139
20
2.32383
0
VERTEX
8
Stations
10
8.90573
20
2.24102
0
VERTEX
8
Stations
10
8.84794
20
2.15972
0
VERTEX
8
Stations
10
8.78797
20
2.08003
0
VERTEX
8
Stations
10
8.72581
20
2.00209
0
VERTEX
8
Stations
10
8.66142
20
1.926
0
VERTEX
8
Stations
10
8.5948
20
1.8519
0
VERTEX
8
Stations
10
8.52596
20
1.77989
0
VERTEX
8
Stations
10
8.4531
20
1.7083
0
VERTEX
8
Stations
10
8.37968
20
1.64061
0
VERTEX
8
Stations
10
8.30415
20
1.57527
0
VERTEX
8
Stations
10
8.22661
20
1.51237
0
VERTEX
8
Stations
10
8.14713
20
1.45191
0
VERTEX
8
Stations
10
8.06583
20
1.39392
0
VERTEX
8
Stations
10
7.98281
20
1.3384
0
VERTEX
8
Stations
10
7.89819
20
1.28537
0
VERTEX
8
Stations
10
7.81207
20
1.23476
0
VERTEX
8
Stations
10
7.72458
20
1.18654
0
VERTEX
8
Stations
10
7.63584
20
1.14066
0
VERTEX
8
Stations
10
7.54594
20
1.09704
0
VERTEX
8
Stations
10
7.45501
20
1.05562
0
VERTEX
8
Stations
10
7.36312
20
1.01631
0
VERTEX
8
Stations
10
7.2704
20
0.979
0
VERTEX
8
Stations
10
7.17691
20
0.9436
0
VERTEX
8
Stations
10
7.08276
20
0.91003
0
VERTEX
8
Stations
10
6.988
20
0.87816
0
VERTEX
8
Stations
10
6.89272
20
0.8479
0
VERTEX
8
Stations
10
6.79697
20
0.81915
0
VERTEX
8
Stations
10
6.70083
20
0.79182
0
VERTEX
8
Stations
10
6.60432
20
0.76582
0
VERTEX
8
Stations
10
6.5075
20
0.74106
0
VERTEX
8
Stations
10
6.41034
20
0.7175
0
VERTEX
8
Stations
10
6.31287
20
0.69507
0
VERTEX
8
Stations
10
6.21512
20
0.67373
0
VERTEX
8
Stations
10
6.11711
20
0.65342
0
VERTEX
8
Stations
10
6.01886
20
0.63407
0
VERTEX
8
Stations
10
5.92049
20
0.61561
0
VERTEX
8
Stations
10
5.82207
20
0.59795
0
VERTEX
8
Stations
10
5.72363
20
0.58101
0
VERTEX
8
Stations
10
5.62523
20
0.56471
0
VERTEX
8
Stations
10
5.52692
20
0.54901
0
VERTEX
8
Stations
10
5.4261
20
0.53345
0
VERTEX
8
Stations
10
5.32753
20
0.51875
0
VERTEX
8
Stations
10
5.22873
20
0.50463
0
VERTEX
8
Stations
10
5.12958
20
0.49114
0
VERTEX
8
Stations
10
5.03007
20
0.47831
0
VERTEX
8
Stations
10
4.93033
20
0.46612
0
VERTEX
8
Stations
10
4.83235
20
0.45475
0
VERTEX
8
Stations
10
4.73184
20
0.44361
0
VERTEX
8
Stations
10
4.63166
20
0.43296
0
VERTEX
8
Stations
10
4.53183
20
0.42273
0
VERTEX
8
Stations
10
4.43291
20
0.4129
0
VERTEX
8
Stations
10
4.33285
20
0.40326
0
VERTEX
8
Stations
10
4.23308
20
0.39391
0
VERTEX
8
Stations
10
4.13339
20
0.38481
0
VERTEX
8
Stations
10
4.03377
20
0.37595
0
VERTEX
8
Stations
10
3.93413
20
0.36731
0
VERTEX
8
Stations
10
3.83447
20
0.35889
0
VERTEX
8
Stations
10
3.73484
20
0.35069
0
VERTEX
8
Stations
10
3.63515
20
0.3427
0
VERTEX
8
Stations
10
3.53544
20
0.33493
0
VERTEX
8
Stations
10
3.43572
20
0.32738
0
VERTEX
8
Stations
10
3.33599
20
0.32006
0
VERTEX
8
Stations
10
3.23623
20
0.31298
0
VERTEX
8
Stations
10
3.13647
20
0.30614
0
VERTEX
8
Stations
10
3.03667
20
0.29954
0
VERTEX
8
Stations
10
2.93685
20
0.29318
0
VERTEX
8
Stations
10
2.83689
20
0.28703
0
VERTEX
8
Stations
10
2.73724
20
0.28112
0
VERTEX
8
Stations
10
2.63716
20
0.27539
0
VERTEX
8
Stations
10
2.53738
20
0.26988
0
VERTEX
8
Stations
10
2.43763
20
0.26456
0
VERTEX
8
Stations
10
2.33784
20
0.25941
0
VERTEX
8
Stations
10
2.23804
20
0.25443
0
VERTEX
8
Stations
10
2.13823
20
0.2496
0
VERTEX
8
Stations
10
2.03839
20
0.24491
0
VERTEX
8
Stations
10
1.93853
20
0.24034
0
VERTEX
8
Stations
10
1.83838
20
0.23588
0
VERTEX
8
Stations
10
1.73846
20
0.23153
0
VERTEX
8
Stations
10
1.63857
20
0.22727
0
VERTEX
8
Stations
10
1.53881
20
0.22308
0
VERTEX
8
Stations
10
1.43885
20
0.21896
0
VERTEX
8
Stations
10
1.3389
20
0.2149
0
VERTEX
8
Stations
10
1.23895
20
0.21091
0
VERTEX
8
Stations
10
1.139
20
0.20696
0
VERTEX
8
Stations
10
1.03905
20
0.20307
0
VERTEX
8
Stations
10
0.93913
20
0.19923
0
VERTEX
8
Stations
10
0.83918
20
0.19542
0
VERTEX
8
Stations
10
0.73923
20
0.19165
0
VERTEX
8
Stations
10
0.63931
20
0.18791
0
VERTEX
8
Stations
10
0.53937
20
0.1842
0
VERTEX
8
Stations
10
0.43944
20
0.18051
0
VERTEX
8
Stations
10
0.3395
20
0.17684
0
VERTEX
8
Stations
10
0.23956
20
0.17318
0
VERTEX
8
Stations
10
0.13963
20
0.16953
0
VERTEX
8
Stations
10
0.03969
20
0.16589
0
VERTEX
8
Stations
10
0.0
20
0.16445
0
SEQEND
0
POLYLINE
8
Stations
62
135
66
1
0
VERTEX
8
Stations
10
0.0
20
11.68656
0
VERTEX
8
Stations
10
0.09908
20
11.67303
0
VERTEX
8
Stations
10
0.19816
20
11.65949
0
VERTEX
8
Stations
10
0.29725
20
11.64595
0
VERTEX
8
Stations
10
0.39633
20
11.63241
0
VERTEX
8
Stations
10
0.49543
20
11.61886
0
VERTEX
8
Stations
10
0.59454
20
11.6053
0
VERTEX
8
Stations
10
0.69368
20
11.59173
0
VERTEX
8
Stations
10
0.79264
20
11.57817
0
VERTEX
8
Stations
10
0.89172
20
11.56458
0
VERTEX
8
Stations
10
0.9908
20
11.55098
0
VERTEX
8
Stations
10
1.08988
20
11.53736
0
VERTEX
8
Stations
10
1.18898
20
11.52372
0
VERTEX
8
Stations
10
1.2881
20
11.51006
0
VERTEX
8
Stations
10
1.38725
20
11.49637
0
VERTEX
8
Stations
10
1.48645
20
11.48265
0
VERTEX
8
Stations
10
1.58571
20
11.46889
0
VERTEX
8
Stations
10
1.68427
20
11.45519
0
VERTEX
8
Stations
10
1.78335
20
11.44139
0
VERTEX
8
Stations
10
1.88246
20
11.42754
0
VERTEX
8
Stations
10
1.98161
20
11.41365
0
VERTEX
8
Stations
10
2.08079
20
11.3997
0
VERTEX
8
Stations
10
2.18005
20
11.38568
0
VERTEX
8
Stations
10
2.27939
20
11.37159
0
VERTEX
8
Stations
10
2.37885
20
11.35741
0
VERTEX
8
Stations
10
2.47844
20
11.34314
0
VERTEX
8
Stations
10
2.57589
20
11.32908
0
VERTEX
8
Stations
10
2.67507
20
11.31466
0
VERTEX
8
Stations
10
2.77425
20
11.30014
0
VERTEX
8
Stations
10
2.87341
20
11.28549
0
VERTEX
8
Stations
10
2.97251
20
11.27072
0
VERTEX
8
Stations
10
3.07155
20
11.25582
0
VERTEX
8
Stations
10
3.17051
20
11.24078
0
VERTEX
8
Stations
10
3.26937
20
11.2256
0
VERTEX
8
Stations
10
3.36812
20
11.21029
0
VERTEX
8
Stations
10
3.46679
20
11.19484
0
VERTEX
8
Stations
10
3.56538
20
11.17925
0
VERTEX
8
Stations
10
3.66393
20
11.16354
0
VERTEX
8
Stations
10
3.76245
20
11.14769
0
VERTEX
8
Stations
10
3.86098
20
11.13173
0
VERTEX
8
Stations
10
3.96155
20
11.11531
0
VERTEX
8
Stations
10
4.0599
20
11.09912
0
VERTEX
8
Stations
10
4.15829
20
11.08278
0
VERTEX
8
Stations
10
4.25673
20
11.06629
0
VERTEX
8
Stations
10
4.35519
20
11.04963
0
VERTEX
8
Stations
10
4.45365
20
11.03279
0
VERTEX
8
Stations
10
4.55212
20
11.01577
0
VERTEX
8
Stations
10
4.65059
20
10.99856
0
VERTEX
8
Stations
10
4.74905
20
10.98113
0
VERTEX
8
Stations
10
4.84749
20
10.96349
0
VERTEX
8
Stations
10
4.94592
20
10.94561
0
VERTEX
8
Stations
10
5.0443
20
10.92748
0
VERTEX
8
Stations
10
5.14263
20
10.9091
0
VERTEX
8
Stations
10
5.24091
20
10.89045
0
VERTEX
8
Stations
10
5.33915
20
10.87152
0
VERTEX
8
Stations
10
5.43734
20
10.85231
0
VERTEX
8
Stations
10
5.53549
20
10.8328
0
VERTEX
8
Stations
10
5.6336
20
10.81299
0
VERTEX
8
Stations
10
5.73167
20
10.79286
0
VERTEX
8
Stations
10
5.82971
20
10.7724
0
VERTEX
8
Stations
10
5.92587
20
10.752
0
VERTEX
8
Stations
10
6.02366
20
10.73088
0
VERTEX
8
Stations
10
6.12137
20
10.70941
0
VERTEX
8
Stations
10
6.21898
20
10.68751
0
VERTEX
8
Stations
10
6.31647
20
10.66512
0
VERTEX
8
Stations
10
6.41381
20
10.64218
0
VERTEX
8
Stations
10
6.51097
20
10.61862
0
VERTEX
8
Stations
10
6.60796
20
10.59437
0
VERTEX
8
Stations
10
6.70475
20
10.56938
0
VERTEX
8
Stations
10
6.80133
20
10.54359
0
VERTEX
8
Stations
10
6.89769
20
10.51695
0
VERTEX
8
Stations
10
6.9938
20
10.48942
0
VERTEX
8
Stations
10
7.08968
20
10.46098
0
VERTEX
8
Stations
10
7.18535
20
10.43163
0
VERTEX
8
Stations
10
7.28086
20
10.40142
0
VERTEX
8
Stations
10
7.37628
20
10.37034
0
VERTEX
8
Stations
10
7.47175
20
10.33836
0
VERTEX
8
Stations
10
7.56526
20
10.30614
0
VERTEX
8
Stations
10
7.6601
20
10.2725
0
VERTEX
8
Stations
10
7.75525
20
10.23766
0
VERTEX
8
Stations
10
7.84789
20
10.2025
0
VERTEX
8
Stations
10
7.94249
20
10.16498
0
VERTEX
8
Stations
10
8.03639
20
10.12558
0
VERTEX
8
Stations
10
8.12552
20
10.08566
0
VERTEX
8
Stations
10
8.21828
20
10.04128
0
VERTEX
8
Stations
10
8.30659
20
9.99662
0
VERTEX
8
Stations
10
8.39444
20
9.95016
0
VERTEX
8
Stations
10
8.48164
20
9.90172
0
VERTEX
8
Stations
10
8.56785
20
9.85103
0
VERTEX
8
Stations
10
8.65262
20
9.79775
0
VERTEX
8
Stations
10
8.73544
20
9.7417
0
VERTEX
8
Stations
10
8.81609
20
9.68276
0
VERTEX
8
Stations
10
8.89436
20
9.62086
0
VERTEX
8
Stations
10
8.9701
20
9.55591
0
VERTEX
8
Stations
10
9.04304
20
9.48783
0
VERTEX
8
Stations
10
9.11284
20
9.41653
0
VERTEX
8
Stations
10
9.17912
20
9.34198
0
VERTEX
8
Stations
10
9.24159
20
9.26423
0
VERTEX
8
Stations
10
9.30164
20
9.18106
0
VERTEX
8
Stations
10
9.35556
20
9.09753
0
VERTEX
8
Stations
10
9.40517
20
9.01136
0
VERTEX
8
Stations
10
9.45041
20
8.92279
0
VERTEX
8
Stations
10
9.49128
20
8.83207
0
VERTEX
8
Stations
10
9.52783
20
8.7395
0
VERTEX
8
Stations
10
9.5602
20
8.64533
0
VERTEX
8
Stations
10
9.58931
20
8.54715
0
VERTEX
8
Stations
10
9.61368
20
8.45092
0
VERTEX
8
Stations
10
9.63451
20
8.35376
0
VERTEX
8
Stations
10
9.65201
20
8.25585
0
VERTEX
8
Stations
10
9.66642
20
8.15737
0
VERTEX
8
Stations
10
9.67795
20
8.05844
0
VERTEX
8
Stations
10
9.68682
20
7.95916
0
VERTEX
8
Stations
10
9.69323
20
7.85964
0
VERTEX
8
Stations
10
9.69743
20
7.75778
0
VERTEX
8
Stations
10
9.69942
20
7.65834
0
VERTEX
8
Stations
10
9.69951
20
7.55879
0
VERTEX
8
Stations
10
9.69782
20
7.45918
0
VERTEX
8
Stations
10
9.69451
20
7.35954
0
VERTEX
8
Stations
10
9.6897
20
7.25992
0
VERTEX
8
Stations
10
9.68349
20
7.16032
0
VERTEX
8
Stations
10
9.67599
20
7.06077
0
VERTEX
8
Stations
10
9.66727
20
6.96128
0
VERTEX
8
Stations
10
9.6574
20
6.86187
0
VERTEX
8
Stations
10
9.64646
20
6.76256
0
VERTEX
8
Stations
10
9.6343
20
6.66176
0
VERTEX
8
Stations
10
9.62137
20
6.56286
0
VERTEX
8
Stations
10
9.60749
20
6.46405
0
VERTEX
8
Stations
10
9.59271
20
6.36533
0
VERTEX
8
Stations
10
9.57705
20
6.26672
0
VERTEX
8
Stations
10
9.56055
20
6.16823
0
VERTEX
8
Stations
10
9.54322
20
6.06986
0
VERTEX
8
Stations
10
9.52508
20
5.97161
0
VERTEX
8
Stations
10
9.50614
20
5.87351
0
VERTEX
8
Stations
10
9.48643
20
5.77554
0
VERTEX
8
Stations
10
9.46595
20
5.67773
0
VERTEX
8
Stations
10
9.44471
20
5.58006
0
VERTEX
8
Stations
10
9.42272
20
5.48256
0
VERTEX
8
Stations
10
9.39999
20
5.38521
0
VERTEX
8
Stations
10
9.37652
20
5.28805
0
VERTEX
8
Stations
10
9.3523
20
5.19105
0
VERTEX
8
Stations
10
9.32734
20
5.09423
0
VERTEX
8
Stations
10
9.30164
20
4.99762
0
VERTEX
8
Stations
10
9.2752
20
4.90121
0
VERTEX
8
Stations
10
9.248
20
4.80499
0
VERTEX
8
Stations
10
9.22005
20
4.70899
0
VERTEX
8
Stations
10
9.19132
20
4.61322
0
VERTEX
8
Stations
10
9.16182
20
4.51768
0
VERTEX
8
Stations
10
9.13153
20
4.42239
0
VERTEX
8
Stations
10
9.10044
20
4.32735
0
VERTEX
8
Stations
10
9.06853
20
4.23261
0
VERTEX
8
Stations
10
9.03578
20
4.13812
0
VERTEX
8
Stations
10
9.00178
20
4.04288
0
VERTEX
8
Stations
10
8.96731
20
3.94914
0
VERTEX
8
Stations
10
8.93195
20
3.85574
0
VERTEX
8
Stations
10
8.89566
20
3.76271
0
VERTEX
8
Stations
10
8.85841
20
3.67008
0
VERTEX
8
Stations
10
8.82017
20
3.57787
0
VERTEX
8
Stations
10
8.7809
20
3.48612
0
VERTEX
8
Stations
10
8.74025
20
3.39417
0
VERTEX
8
Stations
10
8.69949
20
3.30493
0
VERTEX
8
Stations
10
8.65653
20
3.21402
0
VERTEX
8
Stations
10
8.61274
20
3.12455
0
VERTEX
8
Stations
10
8.56768
20
3.03581
0
VERTEX
8
Stations
10
8.5213
20
2.94784
0
VERTEX
8
Stations
10
8.47251
20
2.85892
0
VERTEX
8
Stations
10
8.42296
20
2.77226
0
VERTEX
8
Stations
10
8.37184
20
2.68655
0
VERTEX
8
Stations
10
8.31908
20
2.6019
0
VERTEX
8
Stations
10
8.26462
20
2.51838
0
VERTEX
8
Stations
10
8.20841
20
2.43609
0
VERTEX
8
Stations
10
8.15038
20
2.35512
0
VERTEX
8
Stations
10
8.09051
20
2.27558
0
VERTEX
8
Stations
10
8.02727
20
2.19577
0
VERTEX
8
Stations
10
7.96328
20
2.11914
0
VERTEX
8
Stations
10
7.8973
20
2.04423
0
VERTEX
8
Stations
10
7.82934
20
1.97116
0
VERTEX
8
Stations
10
7.75938
20
1.89999
0
VERTEX
8
Stations
10
7.68746
20
1.83085
0
VERTEX
8
Stations
10
7.61358
20
1.76381
0
VERTEX
8
Stations
10
7.53781
20
1.69895
0
VERTEX
8
Stations
10
7.4602
20
1.63632
0
VERTEX
8
Stations
10
7.3808
20
1.57597
0
VERTEX
8
Stations
10
7.2997
20
1.51793
0
VERTEX
8
Stations
10
7.21698
20
1.46223
0
VERTEX
8
Stations
10
7.13058
20
1.40754
0
VERTEX
8
Stations
10
7.04472
20
1.35645
0
VERTEX
8
Stations
10
6.95753
20
1.30764
0
VERTEX
8
Stations
10
6.86913
20
1.26107
0
VERTEX
8
Stations
10
6.7796
20
1.21671
0
VERTEX
8
Stations
10
6.68901
20
1.1745
0
VERTEX
8
Stations
10
6.59747
20
1.13439
0
VERTEX
8
Stations
10
6.50505
20
1.09632
0
VERTEX
8
Stations
10
6.41184
20
1.06023
0
VERTEX
8
Stations
10
6.31792
20
1.02602
0
VERTEX
8
Stations
10
6.22339
20
0.99357
0
VERTEX
8
Stations
10
6.12831
20
0.96279
0
VERTEX
8
Stations
10
6.03274
20
0.93357
0
VERTEX
8
Stations
10
5.93673
20
0.90581
0
VERTEX
8
Stations
10
5.84031
20
0.87946
0
VERTEX
8
Stations
10
5.74351
20
0.85448
0
VERTEX
8
Stations
10
5.64632
20
0.83079
0
VERTEX
8
Stations
10
5.54883
20
0.80837
0
VERTEX
8
Stations
10
5.45102
20
0.78711
0
VERTEX
8
Stations
10
5.35303
20
0.76695
0
VERTEX
8
Stations
10
5.25495
20
0.74776
0
VERTEX
8
Stations
10
5.1568
20
0.72942
0
VERTEX
8
Stations
10
5.05864
20
0.71186
0
VERTEX
8
Stations
10
4.96056
20
0.695
0
VERTEX
8
Stations
10
4.8626
20
0.6788
0
VERTEX
8
Stations
10
4.76441
20
0.66327
0
VERTEX
8
Stations
10
4.66294
20
0.64808
0
VERTEX
8
Stations
10
4.56617
20
0.63446
0
VERTEX
8
Stations
10
4.46612
20
0.62123
0
VERTEX
8
Stations
10
4.36582
20
0.60876
0
VERTEX
8
Stations
10
4.26561
20
0.59696
0
VERTEX
8
Stations
10
4.16572
20
0.58576
0
VERTEX
8
Stations
10
4.06692
20
0.57513
0
VERTEX
8
Stations
10
3.96684
20
0.56476
0
VERTEX
8
Stations
10
3.8671
20
0.55477
0
VERTEX
8
Stations
10
3.76747
20
0.54512
0
VERTEX
8
Stations
10
3.66804
20
0.53578
0
VERTEX
8
Stations
10
3.56829
20
0.52669
0
VERTEX
8
Stations
10
3.46869
20
0.5179
0
VERTEX
8
Stations
10
3.36906
20
0.50937
0
VERTEX
8
Stations
10
3.26939
20
0.50111
0
VERTEX
8
Stations
10
3.1697
20
0.49313
0
VERTEX
8
Stations
10
3.06998
20
0.48542
0
VERTEX
8
Stations
10
2.97027
20
0.47801
0
VERTEX
8
Stations
10
2.87052
20
0.4709
0
VERTEX
8
Stations
10
2.77076
20
0.46409
0
VERTEX
8
Stations
10
2.67096
20
0.45757
0
VERTEX
8
Stations
10
2.57114
20
0.45134
0
VERTEX
8
Stations
10
2.47132
20
0.44538
0
VERTEX
8
Stations
10
2.3712
20
0.43966
0
VERTEX
8
Stations
10
2.27146
20
0.43421
0
VERTEX
8
Stations
10
2.17172
20
0.42898
0
VERTEX
8
Stations
10
2.07191
20
0.42396
0
VERTEX
8
Stations
10
1.97208
20
0.41913
0
VERTEX
8
Stations
10
1.87225
20
0.41448
0
VERTEX
8
Stations
10
1.77236
20
0.40997
0
VERTEX
8
Stations
10
1.67248
20
0.40561
0
VERTEX
8
Stations
10
1.57257
20
0.40136
0
VERTEX
8
Stations
10
1.47262
20
0.3972
0
VERTEX
8
Stations
10
1.37267
20
0.39312
0
VERTEX
8
Stations
10
1.27272
20
0.38912
0
VERTEX
8
Stations
10
1.17277
20
0.38518
0
VERTEX
8
Stations
10
1.07282
20
0.3813
0
VERTEX
8
Stations
10
0.97288
20
0.37748
0
VERTEX
8
Stations
10
0.87294
20
0.37371
0
VERTEX
8
Stations
10
0.773
20
0.36998
0
VERTEX
8
Stations
10
0.67305
20
0.36629
0
VERTEX
8
Stations
10
0.57313
20
0.36263
0
VERTEX
8
Stations
10
0.47318
20
0.359
0
VERTEX
8
Stations
10
0.37324
20
0.3554
0
VERTEX
8
Stations
10
0.27331
20
0.35181
0
VERTEX
8
Stations
10
0.17337
20
0.34824
0
VERTEX
8
Stations
10
0.07344
20
0.34467
0
VERTEX
8
Stations
10
0.0
20
0.34206
0
SEQEND
0
POLYLINE
8
Stations
62
135
66
1
0
VERTEX
8
Stations
10
0.0
20
11.24438
0
VERTEX
8
Stations
10
0.09937
20
11.23314
0
VERTEX
8
Stations
10
0.19874
20
11.2219
0
VERTEX
8
Stations
10
0.2981
20
11.21066
0
VERTEX
8
Stations
10
0.39747
20
11.1994
0
VERTEX
8
Stations
10
0.49683
20
11.18813
0
VERTEX
8
Stations
10
0.59619
20
11.17685
0
VERTEX
8
Stations
10
0.69556
20
11.16554
0
VERTEX
8
Stations
10
0.79491
20
11.15421
0
VERTEX
8
Stations
10
0.89427
20
11.14286
0
VERTEX
8
Stations
10
0.99362
20
11.13148
0
VERTEX
8
Stations
10
1.09297
20
11.12007
0
VERTEX
8
Stations
10
1.19232
20
11.10862
0
VERTEX
8
Stations
10
1.29165
20
11.09713
0
VERTEX
8
Stations
10
1.39099
20
11.0856
0
VERTEX
8
Stations
10
1.49033
20
11.07403
0
VERTEX
8
Stations
10
1.58966
20
11.0624
0
VERTEX
8
Stations
10
1.68898
20
11.05072
0
VERTEX
8
Stations
10
1.7883
20
11.03899
0
VERTEX
8
Stations
10
1.88762
20
11.02719
0
VERTEX
8
Stations
10
1.98693
20
11.01533
0
VERTEX
8
Stations
10
2.08623
20
11.0034
0
VERTEX
8
Stations
10
2.18553
20
10.99141
0
VERTEX
8
Stations
10
2.28483
20
10.97933
0
VERTEX
8
Stations
10
2.38396
20
10.96719
0
VERTEX
8
Stations
10
2.48321
20
10.95496
0
VERTEX
8
Stations
10
2.58245
20
10.94264
0
VERTEX
8
Stations
10
2.68168
20
10.93022
0
VERTEX
8
Stations
10
2.7809
20
10.91771
0
VERTEX
8
Stations
10
2.8801
20
10.90509
0
VERTEX
8
Stations
10
2.97929
20
10.89236
0
VERTEX
8
Stations
10
3.07847
20
10.87952
0
VERTEX
8
Stations
10
3.17763
20
10.86656
0
VERTEX
8
Stations
10
3.27677
20
10.85347
0
VERTEX
8
Stations
10
3.3759
20
10.84025
0
VERTEX
8
Stations
10
3.47502
20
10.82689
0
VERTEX
8
Stations
10
3.57411
20
10.81339
0
VERTEX
8
Stations
10
3.67318
20
10.79974
0
VERTEX
8
Stations
10
3.77224
20
10.78592
0
VERTEX
8
Stations
10
3.87127
20
10.77194
0
VERTEX
8
Stations
10
3.97028
20
10.75779
0
VERTEX
8
Stations
10
4.06927
20
10.74346
0
VERTEX
8
Stations
10
4.16823
20
10.72894
0
VERTEX
8
Stations
10
4.26717
20
10.71423
0
VERTEX
8
Stations
10
4.36608
20
10.69931
0
VERTEX
8
Stations
10
4.46497
20
10.68418
0
VERTEX
8
Stations
10
4.56383
20
10.66883
0
VERTEX
8
Stations
10
4.66266
20
10.65325
0
VERTEX
8
Stations
10
4.76146
20
10.63742
0
VERTEX
8
Stations
10
4.86022
20
10.62135
0
VERTEX
8
Stations
10
4.95895
20
10.60499
0
VERTEX
8
Stations
10
5.05764
20
10.58833
0
VERTEX
8
Stations
10
5.15627
20
10.57134
0
VERTEX
8
Stations
10
5.25486
20
10.55399
0
VERTEX
8
Stations
10
5.3534
20
10.53625
0
VERTEX
8
Stations
10
5.45094
20
10.51826
0
VERTEX
8
Stations
10
5.54921
20
10.49969
0
VERTEX
8
Stations
10
5.6474
20
10.48063
0
VERTEX
8
Stations
10
5.74549
20
10.46108
0
VERTEX
8
Stations
10
5.84347
20
10.44099
0
VERTEX
8
Stations
10
5.94135
20
10.42035
0
VERTEX
8
Stations
10
6.0391
20
10.39914
0
VERTEX
8
Stations
10
6.13673
20
10.37733
0
VERTEX
8
Stations
10
6.23424
20
10.35491
0
VERTEX
8
Stations
10
6.33161
20
10.33184
0
VERTEX
8
Stations
10
6.42884
20
10.3081
0
VERTEX
8
Stations
10
6.52594
20
10.28366
0
VERTEX
8
Stations
10
6.62288
20
10.25847
0
VERTEX
8
Stations
10
6.71963
20
10.23248
0
VERTEX
8
Stations
10
6.81612
20
10.20555
0
VERTEX
8
Stations
10
6.91226
20
10.17751
0
VERTEX
8
Stations
10
7.00796
20
10.14823
0
VERTEX
8
Stations
10
7.10314
20
10.11754
0
VERTEX
8
Stations
10
7.19778
20
10.0853
0
VERTEX
8
Stations
10
7.29186
20
10.05138
0
VERTEX
8
Stations
10
7.38533
20
10.01568
0
VERTEX
8
Stations
10
7.47699
20
9.97864
0
VERTEX
8
Stations
10
7.56914
20
9.93948
0
VERTEX
8
Stations
10
7.66079
20
9.89865
0
VERTEX
8
Stations
10
7.75217
20
9.85605
0
VERTEX
8
Stations
10
7.84138
20
9.81249
0
VERTEX
8
Stations
10
7.93157
20
9.76614
0
VERTEX
8
Stations
10
8.01908
20
9.71829
0
VERTEX
8
Stations
10
8.10652
20
9.66627
0
VERTEX
8
Stations
10
8.19036
20
9.61077
0
VERTEX
8
Stations
10
8.27028
20
9.55212
0
VERTEX
8
Stations
10
8.34802
20
9.49038
0
VERTEX
8
Stations
10
8.42351
20
9.42525
0
VERTEX
8
Stations
10
8.49788
20
9.35422
0
VERTEX
8
Stations
10
8.5657
20
9.28118
0
VERTEX
8
Stations
10
8.62875
20
9.20425
0
VERTEX
8
Stations
10
8.68688
20
9.12364
0
VERTEX
8
Stations
10
8.74002
20
9.03961
0
VERTEX
8
Stations
10
8.78797
20
8.95246
0
VERTEX
8
Stations
10
8.83055
20
8.8625
0
VERTEX
8
Stations
10
8.86869
20
8.76756
0
VERTEX
8
Stations
10
8.90041
20
8.67361
0
VERTEX
8
Stations
10
8.92723
20
8.57804
0
VERTEX
8
Stations
10
8.94943
20
8.48117
0
VERTEX
8
Stations
10
8.96733
20
8.38332
0
VERTEX
8
Stations
10
8.98124
20
8.28471
0
VERTEX
8
Stations
10
8.99167
20
8.18316
0
VERTEX
8
Stations
10
8.99841
20
8.08412
0
VERTEX
8
Stations
10
9.00211
20
7.98479
0
VERTEX
8
Stations
10
9.00302
20
7.88529
0
VERTEX
8
Stations
10
9.00139
20
7.78569
0
VERTEX
8
Stations
10
8.99744
20
7.68608
0
VERTEX
8
Stations
10
8.99136
20
7.5865
0
VERTEX
8
Stations
10
8.98335
20
7.48702
0
VERTEX
8
Stations
10
8.97337
20
7.38588
0
VERTEX
8
Stations
10
8.96198
20
7.28696
0
VERTEX
8
Stations
10
8.94909
20
7.18814
0
VERTEX
8
Stations
10
8.93484
20
7.08943
0
VERTEX
8
Stations
10
8.91932
20
6.99086
0
VERTEX
8
Stations
10
8.90263
20
6.89245
0
VERTEX
8
Stations
10
8.88481
20
6.79419
0
VERTEX
8
Stations
10
8.86593
20
6.6961
0
VERTEX
8
Stations
10
8.84604
20
6.59818
0
VERTEX
8
Stations
10
8.8252
20
6.50046
0
VERTEX
8
Stations
10
8.80344
20
6.40291
0
VERTEX
8
Stations
10
8.78078
20
6.30556
0
VERTEX
8
Stations
10
8.75727
20
6.2084
0
VERTEX
8
Stations
10
8.73291
20
6.11144
0
VERTEX
8
Stations
10
8.70773
20
6.0147
0
VERTEX
8
Stations
10
8.68175
20
5.91815
0
VERTEX
8
Stations
10
8.65499
20
5.82182
0
VERTEX
8
Stations
10
8.62744
20
5.72569
0
VERTEX
8
Stations
10
8.59913
20
5.62979
0
VERTEX
8
Stations
10
8.56982
20
5.53331
0
VERTEX
8
Stations
10
8.54002
20
5.43793
0
VERTEX
8
Stations
10
8.50948
20
5.34278
0
VERTEX
8
Stations
10
8.47819
20
5.24786
0
VERTEX
8
Stations
10
8.44616
20
5.15318
0
VERTEX
8
Stations
10
8.41339
20
5.05875
0
VERTEX
8
Stations
10
8.37987
20
4.96456
0
VERTEX
8
Stations
10
8.34561
20
4.87065
0
VERTEX
8
Stations
10
8.31059
20
4.77701
0
VERTEX
8
Stations
10
8.27481
20
4.68367
0
VERTEX
8
Stations
10
8.23825
20
4.59061
0
VERTEX
8
Stations
10
8.2009
20
4.49787
0
VERTEX
8
Stations
10
8.16275
20
4.40546
0
VERTEX
8
Stations
10
8.12378
20
4.3134
0
VERTEX
8
Stations
10
8.08397
20
4.22169
0
VERTEX
8
Stations
10
8.0433
20
4.13036
0
VERTEX
8
Stations
10
8.00175
20
4.03944
0
VERTEX
8
Stations
10
7.95928
20
3.94895
0
VERTEX
8
Stations
10
7.91588
20
3.85893
0
VERTEX
8
Stations
10
7.8715
20
3.76938
0
VERTEX
8
Stations
10
7.82593
20
3.68002
0
VERTEX
8
Stations
10
7.77993
20
3.59239
0
VERTEX
8
Stations
10
7.73215
20
3.5041
0
VERTEX
8
Stations
10
7.68347
20
3.41695
0
VERTEX
8
Stations
10
7.63359
20
3.33055
0
VERTEX
8
Stations
10
7.58247
20
3.24496
0
VERTEX
8
Stations
10
7.53004
20
3.16023
0
VERTEX
8
Stations
10
7.47625
20
3.07645
0
VERTEX
8
Stations
10
7.420
20
2.99213
0
VERTEX
8
Stations
10
7.36305
20
2.91007
0
VERTEX
8
Stations
10
7.30455
20
2.82915
0
VERTEX
8
Stations
10
7.24446
20
2.74944
0
VERTEX
8
Stations
10
7.18273
20
2.67102
0
VERTEX
8
Stations
10
7.11934
20
2.59398
0
VERTEX
8
Stations
10
7.05425
20
2.51842
0
VERTEX
8
Stations
10
6.98746
20
2.44442
0
VERTEX
8
Stations
10
6.91893
20
2.37206
0
VERTEX
8
Stations
10
6.84869
20
2.30142
0
VERTEX
8
Stations
10
6.77506
20
2.23101
0
VERTEX
8
Stations
10
6.70111
20
2.16388
0
VERTEX
8
Stations
10
6.62546
20
2.09868
0
VERTEX
8
Stations
10
6.54815
20
2.03547
0
VERTEX
8
Stations
10
6.46922
20
1.9743
0
VERTEX
8
Stations
10
6.38873
20
1.91521
0
VERTEX
8
Stations
10
6.30674
20
1.85823
0
VERTEX
8
Stations
10
6.22334
20
1.80337
0
VERTEX
8
Stations
10
6.13858
20
1.75061
0
VERTEX
8
Stations
10
6.05256
20
1.69995
0
VERTEX
8
Stations
10
5.96533
20
1.65136
0
VERTEX
8
Stations
10
5.87701
20
1.60482
0
VERTEX
8
Stations
10
5.78765
20
1.56029
0
VERTEX
8
Stations
10
5.69733
20
1.51771
0
VERTEX
8
Stations
10
5.60613
20
1.47702
0
VERTEX
8
Stations
10
5.51413
20
1.43816
0
VERTEX
8
Stations
10
5.42144
20
1.40107
0
VERTEX
8
Stations
10
5.32808
20
1.36565
0
VERTEX
8
Stations
10
5.23184
20
1.33103
0
VERTEX
8
Stations
10
5.13725
20
1.29876
0
VERTEX
8
Stations
10
5.04216
20
1.26799
0
VERTEX
8
Stations
10
4.94657
20
1.23865
0
VERTEX
8
Stations
10
4.85055
20
1.2107
0
VERTEX
8
Stations
10
4.75414
20
1.18407
0
VERTEX
8
Stations
10
4.65738
20
1.15868
0
VERTEX
8
Stations
10
4.56039
20
1.1344
0
VERTEX
8
Stations
10
4.46325
20
1.11109
0
VERTEX
8
Stations
10
4.36602
20
1.08866
0
VERTEX
8
Stations
10
4.26878
20
1.06702
0
VERTEX
8
Stations
10
4.17158
20
1.04612
0
VERTEX
8
Stations
10
4.0741
20
1.02596
0
VERTEX
8
Stations
10
3.97597
20
1.00663
0
VERTEX
8
Stations
10
3.87715
20
0.98817
0
VERTEX
8
Stations
10
3.77787
20
0.97059
0
VERTEX
8
Stations
10
3.67851
20
0.95381
0
VERTEX
8
Stations
10
3.58062
20
0.93795
0
VERTEX
8
Stations
10
3.48087
20
0.92233
0
VERTEX
8
Stations
10
3.38162
20
0.90724
0
VERTEX
8
Stations
10
3.28255
20
0.89258
0
VERTEX
8
Stations
10
3.18368
20
0.87831
0
VERTEX
8
Stations
10
3.08452
20
0.86434
0
VERTEX
8
Stations
10
2.98546
20
0.8507
0
VERTEX
8
Stations
10
2.88636
20
0.83738
0
VERTEX
8
Stations
10
2.7872
20
0.82436
0
VERTEX
8
Stations
10
2.68801
20
0.81165
0
VERTEX
8
Stations
10
2.58858
20
0.79924
0
VERTEX
8
Stations
10
2.48966
20
0.78723
0
VERTEX
8
Stations
10
2.39018
20
0.7755
0
VERTEX
8
Stations
10
2.29082
20
0.76414
0
VERTEX
8
Stations
10
2.19143
20
0.7531
0
VERTEX
8
Stations
10
2.09201
20
0.74237
0
VERTEX
8
Stations
10
1.99228
20
0.73189
0
VERTEX
8
Stations
10
1.89295
20
0.72171
0
VERTEX
8
Stations
10
1.79354
20
0.71178
0
VERTEX
8
Stations
10
1.69406
20
0.70204
0
VERTEX
8
Stations
10
1.59455
20
0.6925
0
VERTEX
8
Stations
10
1.49502
20
0.68311
0
VERTEX
8
Stations
10
1.39546
20
0.67385
0
VERTEX
8
Stations
10
1.29587
20
0.66468
0
VERTEX
8
Stations
10
1.19626
20
0.65559
0
VERTEX
8
Stations
10
1.09665
20
0.64655
0
VERTEX
8
Stations
10
0.99704
20
0.63756
0
VERTEX
8
Stations
10
0.89743
20
0.62862
0
VERTEX
8
Stations
10
0.79781
20
0.61972
0
VERTEX
8
Stations
10
0.69819
20
0.61085
0
VERTEX
8
Stations
10
0.59858
20
0.60202
0
VERTEX
8
Stations
10
0.49897
20
0.59322
0
VERTEX
8
Stations
10
0.39935
20
0.58443
0
VERTEX
8
Stations
10
0.29973
20
0.57567
0
VERTEX
8
Stations
10
0.20011
20
0.56691
0
VERTEX
8
Stations
10
0.10049
20
0.55817
0
VERTEX
8
Stations
10
0.00121
20
0.54946
0
VERTEX
8
Stations
10
0.0
20
0.54935
0
SEQEND
0
POLYLINE
8
Stations
62
135
66
1
0
VERTEX
8
Stations
10
0.0
20
11.0103
0
VERTEX
8
Stations
10
0.09963
20
11.00174
0
VERTEX
8
Stations
10
0.19927
20
10.99317
0
VERTEX
8
Stations
10
0.2989
20
10.98459
0
VERTEX
8
Stations
10
0.39853
20
10.97601
0
VERTEX
8
Stations
10
0.49816
20
10.96741
0
VERTEX
8
Stations
10
0.59779
20
10.95879
0
VERTEX
8
Stations
10
0.69742
20
10.95014
0
VERTEX
8
Stations
10
0.79704
20
10.94148
0
VERTEX
8
Stations
10
0.89667
20
10.93278
0
VERTEX
8
Stations
10
0.99629
20
10.92405
0
VERTEX
8
Stations
10
1.09591
20
10.91528
0
VERTEX
8
Stations
10
1.19552
20
10.90647
0
VERTEX
8
Stations
10
1.29514
20
10.89761
0
VERTEX
8
Stations
10
1.39475
20
10.88871
0
VERTEX
8
Stations
10
1.49436
20
10.87975
0
VERTEX
8
Stations
10
1.59396
20
10.87074
0
VERTEX
8
Stations
10
1.69357
20
10.86166
0
VERTEX
8
Stations
10
1.79317
20
10.85252
0
VERTEX
8
Stations
10
1.89278
20
10.8433
0
VERTEX
8
Stations
10
1.99238
20
10.83401
0
VERTEX
8
Stations
10
2.0918
20
10.82467
0
VERTEX
8
Stations
10
2.19135
20
10.81522
0
VERTEX
8
Stations
10
2.2909
20
10.80569
0
VERTEX
8
Stations
10
2.39044
20
10.79606
0
VERTEX
8
Stations
10
2.48997
20
10.78633
0
VERTEX
8
Stations
10
2.58949
20
10.7765
0
VERTEX
8
Stations
10
2.689
20
10.76656
0
VERTEX
8
Stations
10
2.7885
20
10.7565
0
VERTEX
8
Stations
10
2.88798
20
10.74631
0
VERTEX
8
Stations
10
2.98746
20
10.73599
0
VERTEX
8
Stations
10
3.08692
20
10.72553
0
VERTEX
8
Stations
10
3.18637
20
10.71491
0
VERTEX
8
Stations
10
3.28581
20
10.70414
0
VERTEX
8
Stations
10
3.38524
20
10.6932
0
VERTEX
8
Stations
10
3.48465
20
10.68209
0
VERTEX
8
Stations
10
3.58404
20
10.67078
0
VERTEX
8
Stations
10
3.68342
20
10.65929
0
VERTEX
8
Stations
10
3.78278
20
10.64758
0
VERTEX
8
Stations
10
3.88213
20
10.63565
0
VERTEX
8
Stations
10
3.98147
20
10.62348
0
VERTEX
8
Stations
10
4.08078
20
10.61107
0
VERTEX
8
Stations
10
4.18008
20
10.59839
0
VERTEX
8
Stations
10
4.27937
20
10.58543
0
VERTEX
8
Stations
10
4.37864
20
10.57217
0
VERTEX
8
Stations
10
4.47788
20
10.5586
0
VERTEX
8
Stations
10
4.576
20
10.54484
0
VERTEX
8
Stations
10
4.675
20
10.53056
0
VERTEX
8
Stations
10
4.77395
20
10.51587
0
VERTEX
8
Stations
10
4.87283
20
10.50072
0
VERTEX
8
Stations
10
4.97164
20
10.48507
0
VERTEX
8
Stations
10
5.07036
20
10.46887
0
VERTEX
8
Stations
10
5.169
20
10.45209
0
VERTEX
8
Stations
10
5.26753
20
10.43468
0
VERTEX
8
Stations
10
5.36594
20
10.41659
0
VERTEX
8
Stations
10
5.46424
20
10.3978
0
VERTEX
8
Stations
10
5.56241
20
10.37827
0
VERTEX
8
Stations
10
5.66044
20
10.35796
0
VERTEX
8
Stations
10
5.75834
20
10.33683
0
VERTEX
8
Stations
10
5.8561
20
10.31483
0
VERTEX
8
Stations
10
5.95371
20
10.29191
0
VERTEX
8
Stations
10
6.05112
20
10.268
0
VERTEX
8
Stations
10
6.14822
20
10.24294
0
VERTEX
8
Stations
10
6.24487
20
10.21651
0
VERTEX
8
Stations
10
6.34095
20
10.18851
0
VERTEX
8
Stations
10
6.43639
20
10.15872
0
VERTEX
8
Stations
10
6.52951
20
10.12756
0
VERTEX
8
Stations
10
6.62361
20
10.09375
0
VERTEX
8
Stations
10
6.71703
20
10.05782
0
VERTEX
8
Stations
10
6.80992
20
10.01989
0
VERTEX
8
Stations
10
6.90256
20
9.97994
0
VERTEX
8
Stations
10
6.99294
20
9.93882
0
VERTEX
8
Stations
10
7.08469
20
9.89457
0
VERTEX
8
Stations
10
7.17328
20
9.84861
0
VERTEX
8
Stations
10
7.26109
20
9.79812
0
VERTEX
8
Stations
10
7.34449
20
9.74413
0
VERTEX
8
Stations
10
7.42752
20
9.68493
0
VERTEX
8
Stations
10
7.50569
20
9.62357
0
VERTEX
8
Stations
10
7.58044
20
9.55755
0
VERTEX
8
Stations
10
7.65029
20
9.48665
0
VERTEX
8
Stations
10
7.71467
20
9.41098
0
VERTEX
8
Stations
10
7.77331
20
9.33076
0
VERTEX
8
Stations
10
7.82584
20
9.24632
0
VERTEX
8
Stations
10
7.87288
20
9.15586
0
VERTEX
8
Stations
10
7.91185
20
9.06477
0
VERTEX
8
Stations
10
7.94441
20
8.97106
0
VERTEX
8
Stations
10
7.97082
20
8.87529
0
VERTEX
8
Stations
10
7.99193
20
8.77551
0
VERTEX
8
Stations
10
8.00708
20
8.67766
0
VERTEX
8
Stations
10
8.01742
20
8.57897
0
VERTEX
8
Stations
10
8.02341
20
8.47976
0
VERTEX
8
Stations
10
8.02545
20
8.38023
0
VERTEX
8
Stations
10
8.02386
20
8.27844
0
VERTEX
8
Stations
10
8.0191
20
8.17934
0
VERTEX
8
Stations
10
8.01148
20
8.08024
0
VERTEX
8
Stations
10
8.00128
20
7.98122
0
VERTEX
8
Stations
10
7.98874
20
7.88234
0
VERTEX
8
Stations
10
7.9741
20
7.78365
0
VERTEX
8
Stations
10
7.95759
20
7.68518
0
VERTEX
8
Stations
10
7.93916
20
7.58577
0
VERTEX
8
Stations
10
7.91951
20
7.48818
0
VERTEX
8
Stations
10
7.89846
20
7.39075
0
VERTEX
8
Stations
10
7.87611
20
7.29354
0
VERTEX
8
Stations
10
7.85256
20
7.19654
0
VERTEX
8
Stations
10
7.82769
20
7.09906
0
VERTEX
8
Stations
10
7.80216
20
7.00335
0
VERTEX
8
Stations
10
7.77562
20
6.90775
0
VERTEX
8
Stations
10
7.74769
20
6.81091
0
VERTEX
8
Stations
10
7.71909
20
6.71513
0
VERTEX
8
Stations
10
7.68961
20
6.6196
0
VERTEX
8
Stations
10
7.65929
20
6.52433
0
VERTEX
8
Stations
10
7.62816
20
6.42931
0
VERTEX
8
Stations
10
7.59624
20
6.33454
0
VERTEX
8
Stations
10
7.56356
20
6.24005
0
VERTEX
8
Stations
10
7.53013
20
6.1458
0
VERTEX
8
Stations
10
7.49596
20
6.05182
0
VERTEX
8
Stations
10
7.46108
20
5.95812
0
VERTEX
8
Stations
10
7.42548
20
5.86467
0
VERTEX
8
Stations
10
7.38918
20
5.7715
0
VERTEX
8
Stations
10
7.35218
20
5.67861
0
VERTEX
8
Stations
10
7.31449
20
5.586
0
VERTEX
8
Stations
10
7.27611
20
5.49368
0
VERTEX
8
Stations
10
7.23703
20
5.40166
0
VERTEX
8
Stations
10
7.19727
20
5.30993
0
VERTEX
8
Stations
10
7.15681
20
5.21852
0
VERTEX
8
Stations
10
7.11564
20
5.12743
0
VERTEX
8
Stations
10
7.07377
20
5.03667
0
VERTEX
8
Stations
10
7.03118
20
4.94626
0
VERTEX
8
Stations
10
6.98787
20
4.85621
0
VERTEX
8
Stations
10
6.94382
20
4.76653
0
VERTEX
8
Stations
10
6.89902
20
4.67725
0
VERTEX
8
Stations
10
6.85344
20
4.58838
0
VERTEX
8
Stations
10
6.80659
20
4.49903
0
VERTEX
8
Stations
10
6.75934
20
4.41093
0
VERTEX
8
Stations
10
6.71124
20
4.32329
0
VERTEX
8
Stations
10
6.66226
20
4.23614
0
VERTEX
8
Stations
10
6.61236
20
4.14953
0
VERTEX
8
Stations
10
6.56151
20
4.06349
0
VERTEX
8
Stations
10
6.50967
20
3.97808
0
VERTEX
8
Stations
10
6.45678
20
3.89331
0
VERTEX
8
Stations
10
6.40282
20
3.80924
0
VERTEX
8
Stations
10
6.34776
20
3.72593
0
VERTEX
8
Stations
10
6.29154
20
3.64342
0
VERTEX
8
Stations
10
6.23413
20
3.56176
0
VERTEX
8
Stations
10
6.17549
20
3.481
0
VERTEX
8
Stations
10
6.1156
20
3.40124
0
VERTEX
8
Stations
10
6.05438
20
3.32252
0
VERTEX
8
Stations
10
5.9918
20
3.24492
0
VERTEX
8
Stations
10
5.92783
20
3.16853
0
VERTEX
8
Stations
10
5.86095
20
3.09171
0
VERTEX
8
Stations
10
5.79389
20
3.01769
0
VERTEX
8
Stations
10
5.72536
20
2.94504
0
VERTEX
8
Stations
10
5.65539
20
2.87382
0
VERTEX
8
Stations
10
5.58395
20
2.80406
0
VERTEX
8
Stations
10
5.51108
20
2.73585
0
VERTEX
8
Stations
10
5.4368
20
2.6692
0
VERTEX
8
Stations
10
5.36112
20
2.60418
0
VERTEX
8
Stations
10
5.28407
20
2.54081
0
VERTEX
8
Stations
10
5.20569
20
2.47913
0
VERTEX
8
Stations
10
5.12599
20
2.41918
0
VERTEX
8
Stations
10
5.04502
20
2.36098
0
VERTEX
8
Stations
10
4.96282
20
2.30454
0
VERTEX
8
Stations
10
4.87949
20
2.24986
0
VERTEX
8
Stations
10
4.79279
20
2.1955
0
VERTEX
8
Stations
10
4.70715
20
2.14416
0
VERTEX
8
Stations
10
4.62054
20
2.0945
0
VERTEX
8
Stations
10
4.53298
20
2.04653
0
VERTEX
8
Stations
10
4.44446
20
2.00026
0
VERTEX
8
Stations
10
4.35503
20
1.9557
0
VERTEX
8
Stations
10
4.26472
20
1.91282
0
VERTEX
8
Stations
10
4.17376
20
1.87155
0
VERTEX
8
Stations
10
4.08235
20
1.8317
0
VERTEX
8
Stations
10
3.99064
20
1.79316
0
VERTEX
8
Stations
10
3.89885
20
1.75583
0
VERTEX
8
Stations
10
3.80409
20
1.71862
0
VERTEX
8
Stations
10
3.71054
20
1.68358
0
VERTEX
8
Stations
10
3.61588
20
1.65002
0
VERTEX
8
Stations
10
3.5224
20
1.61864
0
VERTEX
8
Stations
10
3.42568
20
1.58768
0
VERTEX
8
Stations
10
3.3293
20
1.558
0
VERTEX
8
Stations
10
3.23429
20
1.52964
0
VERTEX
8
Stations
10
3.13752
20
1.5015
0
VERTEX
8
Stations
10
3.04098
20
1.47408
0
VERTEX
8
Stations
10
2.94449
20
1.44728
0
VERTEX
8
Stations
10
2.84794
20
1.42102
0
VERTEX
8
Stations
10
2.75204
20
1.3955
0
VERTEX
8
Stations
10
2.6552
20
1.3703
0
VERTEX
8
Stations
10
2.55837
20
1.34569
0
VERTEX
8
Stations
10
2.46152
20
1.3217
0
VERTEX
8
Stations
10
2.36455
20
1.29834
0
VERTEX
8
Stations
10
2.26745
20
1.27559
0
VERTEX
8
Stations
10
2.16865
20
1.25307
0
VERTEX
8
Stations
10
2.07109
20
1.23141
0
VERTEX
8
Stations
10
1.97339
20
1.21023
0
VERTEX
8
Stations
10
1.87558
20
1.18948
0
VERTEX
8
Stations
10
1.77765
20
1.16907
0
VERTEX
8
Stations
10
1.67962
20
1.14895
0
VERTEX
8
Stations
10
1.58153
20
1.12905
0
VERTEX
8
Stations
10
1.48451
20
1.10952
0
VERTEX
8
Stations
10
1.38602
20
1.08982
0
VERTEX
8
Stations
10
1.28762
20
1.07024
0
VERTEX
8
Stations
10
1.18932
20
1.05077
0
VERTEX
8
Stations
10
1.09107
20
1.03139
0
VERTEX
8
Stations
10
0.99288
20
1.01208
0
VERTEX
8
Stations
10
0.8947
20
0.99283
0
VERTEX
8
Stations
10
0.79653
20
0.97364
0
VERTEX
8
Stations
10
0.69837
20
0.95449
0
VERTEX
8
Stations
10
0.60033
20
0.93539
0
VERTEX
8
Stations
10
0.5021
20
0.91629
0
VERTEX
8
Stations
10
0.4039
20
0.89722
0
VERTEX
8
Stations
10
0.3057
20
0.87817
0
VERTEX
8
Stations
10
0.20753
20
0.85914
0
VERTEX
8
Stations
10
0.10934
20
0.84011
0
VERTEX
8
Stations
10
0.01862
20
0.82254
0
VERTEX
8
Stations
10
0.0
20
0.81893
0
SEQEND
0
POLYLINE
8
Stations
62
135
66
1
0
VERTEX
8
Stations
10
0.0
20
11.13105
0
VERTEX
8
Stations
10
0.09966
20
11.1228
0
VERTEX
8
Stations
10
0.19932
20
11.11456
0
VERTEX
8
Stations
10
0.29898
20
11.10631
0
VERTEX
8
Stations
10
0.39866
20
11.09807
0
VERTEX
8
Stations
10
0.49835
20
11.08982
0
VERTEX
8
Stations
10
0.59808
20
11.08158
0
VERTEX
8
Stations
10
0.69787
20
11.07333
0
VERTEX
8
Stations
10
0.7973
20
11.06511
0
VERTEX
8
Stations
10
0.89699
20
11.05688
0
VERTEX
8
Stations
10
0.99669
20
11.04865
0
VERTEX
8
Stations
10
1.09639
20
11.04043
0
VERTEX
8
Stations
10
1.19605
20
11.0322
0
VERTEX
8
Stations
10
1.29566
20
11.02395
0
VERTEX
8
Stations
10
1.39528
20
11.01563
0
VERTEX
8
Stations
10
1.49478
20
11.00724
0
VERTEX
8
Stations
10
1.5941
20
10.99876
0
VERTEX
8
Stations
10
1.69311
20
10.9902
0
VERTEX
8
Stations
10
1.79353
20
10.9814
0
VERTEX
8
Stations
10
1.89304
20
10.97256
0
VERTEX
8
Stations
10
1.99262
20
10.9636
0
VERTEX
8
Stations
10
2.09231
20
10.95451
0
VERTEX
8
Stations
10
2.19201
20
10.94533
0
VERTEX
8
Stations
10
2.29168
20
10.93606
0
VERTEX
8
Stations
10
2.39109
20
10.92673
0
VERTEX
8
Stations
10
2.49087
20
10.91728
0
VERTEX
8
Stations
10
2.59025
20
10.90779
0
VERTEX
8
Stations
10
2.68993
20
10.8982
0
VERTEX
8
Stations
10
2.78946
20
10.88854
0
VERTEX
8
Stations
10
2.88899
20
10.8788
0
VERTEX
8
Stations
10
2.98981
20
10.86885
0
VERTEX
8
Stations
10
3.08801
20
10.85907
0
VERTEX
8
Stations
10
3.18751
20
10.84906
0
VERTEX
8
Stations
10
3.287
20
10.83894
0
VERTEX
8
Stations
10
3.38648
20
10.82871
0
VERTEX
8
Stations
10
3.48594
20
10.81835
0
VERTEX
8
Stations
10
3.58544
20
10.80782
0
VERTEX
8
Stations
10
3.68482
20
10.79713
0
VERTEX
8
Stations
10
3.78425
20
10.7862
0
VERTEX
8
Stations
10
3.88443
20
10.77489
0
VERTEX
8
Stations
10
3.98337
20
10.76334
0
VERTEX
8
Stations
10
4.08345
20
10.75117
0
VERTEX
8
Stations
10
4.18367
20
10.7384
0
VERTEX
8
Stations
10
4.28355
20
10.72496
0
VERTEX
8
Stations
10
4.38275
20
10.71085
0
VERTEX
8
Stations
10
4.48126
20
10.6961
0
VERTEX
8
Stations
10
4.57949
20
10.68076
0
VERTEX
8
Stations
10
4.67784
20
10.66478
0
VERTEX
8
Stations
10
4.77625
20
10.64804
0
VERTEX
8
Stations
10
4.87466
20
10.6304
0
VERTEX
8
Stations
10
4.973
20
10.6117
0
VERTEX
8
Stations
10
5.07124
20
10.59172
0
VERTEX
8
Stations
10
5.16926
20
10.57022
0
VERTEX
8
Stations
10
5.26691
20
10.54703
0
VERTEX
8
Stations
10
5.36415
20
10.52206
0
VERTEX
8
Stations
10
5.4609
20
10.49523
0
VERTEX
8
Stations
10
5.55446
20
10.46727
0
VERTEX
8
Stations
10
5.64972
20
10.43664
0
VERTEX
8
Stations
10
5.74649
20
10.40272
0
VERTEX
8
Stations
10
5.83944
20
10.36675
0
VERTEX
8
Stations
10
5.93098
20
10.32742
0
VERTEX
8
Stations
10
6.02112
20
10.28437
0
VERTEX
8
Stations
10
6.10786
20
10.23872
0
VERTEX
8
Stations
10
6.19532
20
10.18847
0
VERTEX
8
Stations
10
6.27959
20
10.13538
0
VERTEX
8
Stations
10
6.36327
20
10.07598
0
VERTEX
8
Stations
10
6.44016
20
10.01005
0
VERTEX
8
Stations
10
6.50742
20
9.93845
0
VERTEX
8
Stations
10
6.57072
20
9.85887
0
VERTEX
8
Stations
10
6.6252
20
9.77627
0
VERTEX
8
Stations
10
6.67103
20
9.68854
0
VERTEX
8
Stations
10
6.7082
20
9.59677
0
VERTEX
8
Stations
10
6.73806
20
9.49952
0
VERTEX
8
Stations
10
6.7596
20
9.4031
0
VERTEX
8
Stations
10
6.77436
20
9.30512
0
VERTEX
8
Stations
10
6.78291
20
9.20619
0
VERTEX
8
Stations
10
6.78599
20
9.10455
0
VERTEX
8
Stations
10
6.78416
20
9.0055
0
VERTEX
8
Stations
10
6.77813
20
8.90638
0
VERTEX
8
Stations
10
6.76837
20
8.80736
0
VERTEX
8
Stations
10
6.75531
20
8.70858
0
VERTEX
8
Stations
10
6.73903
20
8.60822
0
VERTEX
8
Stations
10
6.72062
20
8.51056
0
VERTEX
8
Stations
10
6.70003
20
8.41317
0
VERTEX
8
Stations
10
6.67755
20
8.31607
0
VERTEX
8
Stations
10
6.6534
20
8.2193
0
VERTEX
8
Stations
10
6.62772
20
8.12286
0
VERTEX
8
Stations
10
6.60064
20
8.02674
0
VERTEX
8
Stations
10
6.57231
20
7.93095
0
VERTEX
8
Stations
10
6.5428
20
7.83548
0
VERTEX
8
Stations
10
6.51221
20
7.74035
0
VERTEX
8
Stations
10
6.48061
20
7.64552
0
VERTEX
8
Stations
10
6.44804
20
7.55101
0
VERTEX
8
Stations
10
6.41426
20
7.45591
0
VERTEX
8
Stations
10
6.37999
20
7.36214
0
VERTEX
8
Stations
10
6.34491
20
7.26864
0
VERTEX
8
Stations
10
6.30903
20
7.17542
0
VERTEX
8
Stations
10
6.2724
20
7.08247
0
VERTEX
8
Stations
10
6.23505
20
6.98979
0
VERTEX
8
Stations
10
6.19699
20
6.89738
0
VERTEX
8
Stations
10
6.15824
20
6.80525
0
VERTEX
8
Stations
10
6.11883
20
6.71338
0
VERTEX
8
Stations
10
6.07876
20
6.6218
0
VERTEX
8
Stations
10
6.03805
20
6.53048
0
VERTEX
8
Stations
10
5.99671
20
6.43945
0
VERTEX
8
Stations
10
5.95475
20
6.3487
0
VERTEX
8
Stations
10
5.91216
20
6.25823
0
VERTEX
8
Stations
10
5.86896
20
6.16806
0
VERTEX
8
Stations
10
5.82515
20
6.07817
0
VERTEX
8
Stations
10
5.78073
20
5.98859
0
VERTEX
8
Stations
10
5.73568
20
5.89931
0
VERTEX
8
Stations
10
5.69003
20
5.81035
0
VERTEX
8
Stations
10
5.64374
20
5.72171
0
VERTEX
8
Stations
10
5.59683
20
5.63341
0
VERTEX
8
Stations
10
5.54927
20
5.54545
0
VERTEX
8
Stations
10
5.50107
20
5.45785
0
VERTEX
8
Stations
10
5.45219
20
5.37063
0
VERTEX
8
Stations
10
5.40235
20
5.28331
0
VERTEX
8
Stations
10
5.35235
20
5.19733
0
VERTEX
8
Stations
10
5.30169
20
5.11189
0
VERTEX
8
Stations
10
5.24969
20
5.02592
0
VERTEX
8
Stations
10
5.19721
20
4.94093
0
VERTEX
8
Stations
10
5.14392
20
4.85647
0
VERTEX
8
Stations
10
5.08981
20
4.77258
0
VERTEX
8
Stations
10
5.03484
20
4.68931
0
VERTEX
8
Stations
10
4.97898
20
4.60668
0
VERTEX
8
Stations
10
4.92222
20
4.52474
0
VERTEX
8
Stations
10
4.86366
20
4.4423
0
VERTEX
8
Stations
10
4.80481
20
4.36155
0
VERTEX
8
Stations
10
4.74496
20
4.28155
0
VERTEX
8
Stations
10
4.68407
20
4.20237
0
VERTEX
8
Stations
10
4.62211
20
4.12404
0
VERTEX
8
Stations
10
4.55904
20
4.04665
0
VERTEX
8
Stations
10
4.4948
20
3.97024
0
VERTEX
8
Stations
10
4.4294
20
3.89487
0
VERTEX
8
Stations
10
4.36284
20
3.82058
0
VERTEX
8
Stations
10
4.29511
20
3.74739
0
VERTEX
8
Stations
10
4.22623
20
3.67532
0
VERTEX
8
Stations
10
4.15622
20
3.60442
0
VERTEX
8
Stations
10
4.08351
20
3.53319
0
VERTEX
8
Stations
10
4.011
20
3.46448
0
VERTEX
8
Stations
10
3.93739
20
3.39698
0
VERTEX
8
Stations
10
3.86269
20
3.33072
0
VERTEX
8
Stations
10
3.78693
20
3.2657
0
VERTEX
8
Stations
10
3.71017
20
3.20192
0
VERTEX
8
Stations
10
3.63243
20
3.1394
0
VERTEX
8
Stations
10
3.55371
20
3.07813
0
VERTEX
8
Stations
10
3.47401
20
3.01813
0
VERTEX
8
Stations
10
3.39335
20
2.95938
0
VERTEX
8
Stations
10
3.31176
20
2.90187
0
VERTEX
8
Stations
10
3.22939
20
2.84562
0
VERTEX
8
Stations
10
3.14643
20
2.79065
0
VERTEX
8
Stations
10
3.06067
20
2.73551
0
VERTEX
8
Stations
10
2.97628
20
2.68291
0
VERTEX
8
Stations
10
2.89106
20
2.63154
0
VERTEX
8
Stations
10
2.80463
20
2.58125
0
VERTEX
8
Stations
10
2.71701
20
2.53194
0
VERTEX
8
Stations
10
2.62862
20
2.48351
0
VERTEX
8
Stations
10
2.54158
20
2.43684
0
VERTEX
8
Stations
10
2.45203
20
2.3897
0
VERTEX
8
Stations
10
2.36263
20
2.34345
0
VERTEX
8
Stations
10
2.27324
20
2.29793
0
VERTEX
8
Stations
10
2.18418
20
2.25325
0
VERTEX
8
Stations
10
2.09416
20
2.20873
0
VERTEX
8
Stations
10
2.00421
20
2.16487
0
VERTEX
8
Stations
10
1.9141
20
2.12152
0
VERTEX
8
Stations
10
1.82375
20
2.07862
0
VERTEX
8
Stations
10
1.73348
20
2.03622
0
VERTEX
8
Stations
10
1.64259
20
1.9939
0
VERTEX
8
Stations
10
1.55182
20
1.95191
0
VERTEX
8
Stations
10
1.46098
20
1.9101
0
VERTEX
8
Stations
10
1.37009
20
1.8684
0
VERTEX
8
Stations
10
1.27916
20
1.82676
0
VERTEX
8
Stations
10
1.18824
20
1.78513
0
VERTEX
8
Stations
10
1.09732
20
1.74345
0
VERTEX
8
Stations
10
1.00646
20
1.70166
0
VERTEX
8
Stations
10
0.91567
20
1.65971
0
VERTEX
8
Stations
10
0.82501
20
1.61752
0
VERTEX
8
Stations
10
0.7345
20
1.575
0
VERTEX
8
Stations
10
0.6442
20
1.53206
0
VERTEX
8
Stations
10
0.55394
20
1.48864
0
VERTEX
8
Stations
10
0.46411
20
1.44492
0
VERTEX
8
Stations
10
0.37442
20
1.40081
0
VERTEX
8
Stations
10
0.28486
20
1.35635
0
VERTEX
8
Stations
10
0.19543
20
1.31161
0
VERTEX
8
Stations
10
0.10609
20
1.26666
0
VERTEX
8
Stations
10
0.01681
20
1.22161
0
VERTEX
8
Stations
10
0.0
20
1.21313
0
SEQEND
0
POLYLINE
8
Stations
62
135
66
1
0
VERTEX
8
Stations
10
0.0
20
11.86349
0
VERTEX
8
Stations
10
0.0993
20
11.85188
0
VERTEX
8
Stations
10
0.19865
20
11.84026
0
VERTEX
8
Stations
10
0.29796
20
11.82862
0
VERTEX
8
Stations
10
0.39727
20
11.81696
0
VERTEX
8
Stations
10
0.49656
20
11.80528
0
VERTEX
8
Stations
10
0.5958
20
11.79357
0
VERTEX
8
Stations
10
0.69521
20
11.78181
0
VERTEX
8
Stations
10
0.79451
20
11.77004
0
VERTEX
8
Stations
10
0.89379
20
11.75824
0
VERTEX
8
Stations
10
0.99307
20
11.7464
0
VERTEX
8
Stations
10
1.09235
20
11.73453
0
VERTEX
8
Stations
10
1.19162
20
11.72262
0
VERTEX
8
Stations
10
1.29091
20
11.71067
0
VERTEX
8
Stations
10
1.39019
20
11.69868
0
VERTEX
8
Stations
10
1.48949
20
11.68664
0
VERTEX
8
Stations
10
1.58878
20
11.67455
0
VERTEX
8
Stations
10
1.68806
20
11.66241
0
VERTEX
8
Stations
10
1.78732
20
11.65022
0
VERTEX
8
Stations
10
1.88656
20
11.63797
0
VERTEX
8
Stations
10
1.98581
20
11.62566
0
VERTEX
8
Stations
10
2.08504
20
11.61327
0
VERTEX
8
Stations
10
2.18427
20
11.60081
0
VERTEX
8
Stations
10
2.28348
20
11.58827
0
VERTEX
8
Stations
10
2.38267
20
11.57565
0
VERTEX
8
Stations
10
2.48086
20
11.56305
0
VERTEX
8
Stations
10
2.58105
20
11.55009
0
VERTEX
8
Stations
10
2.68026
20
11.53714
0
VERTEX
8
Stations
10
2.77944
20
11.52406
0
VERTEX
8
Stations
10
2.87849
20
11.51087
0
VERTEX
8
Stations
10
2.97752
20
11.49751
0
VERTEX
8
Stations
10
3.07666
20
11.48397
0
VERTEX
8
Stations
10
3.17588
20
11.47021
0
VERTEX
8
Stations
10
3.27553
20
11.45615
0
VERTEX
8
Stations
10
3.37406
20
11.44195
0
VERTEX
8
Stations
10
3.47378
20
11.42721
0
VERTEX
8
Stations
10
3.57444
20
11.41183
0
VERTEX
8
Stations
10
3.67216
20
11.39624
0
VERTEX
8
Stations
10
3.77195
20
11.37926
0
VERTEX
8
Stations
10
3.87082
20
11.36092
0
VERTEX
8
Stations
10
3.96837
20
11.34094
0
VERTEX
8
Stations
10
4.06521
20
11.31913
0
VERTEX
8
Stations
10
4.16193
20
11.29537
0
VERTEX
8
Stations
10
4.25837
20
11.26948
0
VERTEX
8
Stations
10
4.35428
20
11.24117
0
VERTEX
8
Stations
10
4.45174
20
11.20909
0
VERTEX
8
Stations
10
4.5446
20
11.17442
0
VERTEX
8
Stations
10
4.63579
20
11.13578
0
VERTEX
8
Stations
10
4.72574
20
11.09299
0
VERTEX
8
Stations
10
4.81496
20
11.04616
0
VERTEX
8
Stations
10
4.90073
20
10.99654
0
VERTEX
8
Stations
10
4.98652
20
10.93991
0
VERTEX
8
Stations
10
5.06359
20
10.87675
0
VERTEX
8
Stations
10
5.13396
20
10.80538
0
VERTEX
8
Stations
10
5.19632
20
10.72968
0
VERTEX
8
Stations
10
5.25136
20
10.64548
0
VERTEX
8
Stations
10
5.29581
20
10.55674
0
VERTEX
8
Stations
10
5.32875
20
10.47018
0
VERTEX
8
Stations
10
5.35558
20
10.37363
0
VERTEX
8
Stations
10
5.37386
20
10.27402
0
VERTEX
8
Stations
10
5.38402
20
10.17522
0
VERTEX
8
Stations
10
5.38742
20
10.07568
0
VERTEX
8
Stations
10
5.38489
20
9.97589
0
VERTEX
8
Stations
10
5.37716
20
9.8762
0
VERTEX
8
Stations
10
5.36491
20
9.77685
0
VERTEX
8
Stations
10
5.3488
20
9.67798
0
VERTEX
8
Stations
10
5.32946
20
9.57968
0
VERTEX
8
Stations
10
5.3074
20
9.48195
0
VERTEX
8
Stations
10
5.28305
20
9.38479
0
VERTEX
8
Stations
10
5.25668
20
9.28819
0
VERTEX
8
Stations
10
5.22854
20
9.19214
0
VERTEX
8
Stations
10
5.19883
20
9.09659
0
VERTEX
8
Stations
10
5.16765
20
9.00148
0
VERTEX
8
Stations
10
5.13508
20
8.90679
0
VERTEX
8
Stations
10
5.10121
20
8.81252
0
VERTEX
8
Stations
10
5.06613
20
8.71865
0
VERTEX
8
Stations
10
5.03002
20
8.6253
0
VERTEX
8
Stations
10
4.99305
20
8.53247
0
VERTEX
8
Stations
10
4.95535
20
8.44018
0
VERTEX
8
Stations
10
4.91703
20
8.34848
0
VERTEX
8
Stations
10
4.87691
20
8.25468
0
VERTEX
8
Stations
10
4.83663
20
8.16306
0
VERTEX
8
Stations
10
4.79613
20
8.07347
0
VERTEX
8
Stations
10
4.75348
20
7.98152
0
VERTEX
8
Stations
10
4.71023
20
7.89025
0
VERTEX
8
Stations
10
4.66664
20
7.79993
0
VERTEX
8
Stations
10
4.62254
20
7.71004
0
VERTEX
8
Stations
10
4.57805
20
7.62079
0
VERTEX
8
Stations
10
4.53289
20
7.53158
0
VERTEX
8
Stations
10
4.4871
20
7.44257
0
VERTEX
8
Stations
10
4.44074
20
7.35388
0
VERTEX
8
Stations
10
4.39441
20
7.26674
0
VERTEX
8
Stations
10
4.3462
20
7.17763
0
VERTEX
8
Stations
10
4.29791
20
7.09005
0
VERTEX
8
Stations
10
4.24891
20
7.00286
0
VERTEX
8
Stations
10
4.19925
20
6.91606
0
VERTEX
8
Stations
10
4.14898
20
6.82962
0
VERTEX
8
Stations
10
4.09806
20
6.74333
0
VERTEX
8
Stations
10
4.04654
20
6.65723
0
VERTEX
8
Stations
10
3.99448
20
6.57137
0
VERTEX
8
Stations
10
3.94196
20
6.48584
0
VERTEX
8
Stations
10
3.8891
20
6.40082
0
VERTEX
8
Stations
10
3.83607
20
6.31659
0
VERTEX
8
Stations
10
3.78318
20
6.23381
0
VERTEX
8
Stations
10
3.72879
20
6.15053
0
VERTEX
8
Stations
10
3.67356
20
6.06834
0
VERTEX
8
Stations
10
3.61651
20
5.98575
0
VERTEX
8
Stations
10
3.55819
20
5.903
0
VERTEX
8
Stations
10
3.49966
20
5.82118
0
VERTEX
8
Stations
10
3.44101
20
5.74024
0
VERTEX
8
Stations
10
3.38176
20
5.65947
0
VERTEX
8
Stations
10
3.32217
20
5.57922
0
VERTEX
8
Stations
10
3.26205
20
5.49928
0
VERTEX
8
Stations
10
3.20141
20
5.41974
0
VERTEX
8
Stations
10
3.14063
20
5.34118
0
VERTEX
8
Stations
10
3.07838
20
5.26205
0
VERTEX
8
Stations
10
3.01586
20
5.18401
0
VERTEX
8
Stations
10
2.95264
20
5.10647
0
VERTEX
8
Stations
10
2.8888
20
5.02947
0
VERTEX
8
Stations
10
2.82439
20
4.95297
0
VERTEX
8
Stations
10
2.75946
20
4.87694
0
VERTEX
8
Stations
10
2.69385
20
4.80111
0
VERTEX
8
Stations
10
2.62834
20
4.72625
0
VERTEX
8
Stations
10
2.56205
20
4.65121
0
VERTEX
8
Stations
10
2.4956
20
4.57664
0
VERTEX
8
Stations
10
2.42877
20
4.50236
0
VERTEX
8
Stations
10
2.36144
20
4.42837
0
VERTEX
8
Stations
10
2.29358
20
4.35474
0
VERTEX
8
Stations
10
2.22529
20
4.28154
0
VERTEX
8
Stations
10
2.15663
20
4.20883
0
VERTEX
8
Stations
10
2.087
20
4.13587
0
VERTEX
8
Stations
10
2.0182
20
4.06448
0
VERTEX
8
Stations
10
1.94856
20
3.99279
0
VERTEX
8
Stations
10
1.8787
20
3.92131
0
VERTEX
8
Stations
10
1.80867
20
3.84995
0
VERTEX
8
Stations
10
1.73849
20
3.77864
0
VERTEX
8
Stations
10
1.66827
20
3.70738
0
VERTEX
8
Stations
10
1.59803
20
3.63615
0
VERTEX
8
Stations
10
1.52782
20
3.56493
0
VERTEX
8
Stations
10
1.45765
20
3.49367
0
VERTEX
8
Stations
10
1.38755
20
3.42235
0
VERTEX
8
Stations
10
1.31756
20
3.35093
0
VERTEX
8
Stations
10
1.24768
20
3.27937
0
VERTEX
8
Stations
10
1.17799
20
3.20767
0
VERTEX
8
Stations
10
1.1085
20
3.13574
0
VERTEX
8
Stations
10
1.03927
20
3.06355
0
VERTEX
8
Stations
10
0.97037
20
2.99101
0
VERTEX
8
Stations
10
0.90194
20
2.91807
0
VERTEX
8
Stations
10
0.83409
20
2.84465
0
VERTEX
8
Stations
10
0.76687
20
2.77066
0
VERTEX
8
Stations
10
0.69974
20
2.69537
0
VERTEX
8
Stations
10
0.6349
20
2.62115
0
VERTEX
8
Stations
10
0.56955
20
2.54471
0
VERTEX
8
Stations
10
0.50521
20
2.4677
0
VERTEX
8
Stations
10
0.44146
20
2.38956
0
VERTEX
8
Stations
10
0.37849
20
2.31057
0
VERTEX
8
Stations
10
0.31692
20
2.23112
0
VERTEX
8
Stations
10
0.25724
20
2.15117
0
VERTEX
8
Stations
10
0.19957
20
2.07039
0
VERTEX
8
Stations
10
0.14355
20
1.98838
0
VERTEX
8
Stations
10
0.08769
20
1.90387
0
VERTEX
8
Stations
10
0.0341
20
1.82121
0
VERTEX
8
Stations
10
0.0
20
1.76823
0
SEQEND
0
POLYLINE
8
Stations
62
135
66
1
0
VERTEX
8
Stations
10
0.0
20
12.94503
0
VERTEX
8
Stations
10
0.09886
20
12.92994
0
VERTEX
8
Stations
10
0.19771
20
12.91485
0
VERTEX
8
Stations
10
0.29656
20
12.89973
0
VERTEX
8
Stations
10
0.3954
20
12.88457
0
VERTEX
8
Stations
10
0.49424
20
12.86937
0
VERTEX
8
Stations
10
0.59307
20
12.85411
0
VERTEX
8
Stations
10
0.69188
20
12.83877
0
VERTEX
8
Stations
10
0.79068
20
12.82335
0
VERTEX
8
Stations
10
0.88947
20
12.80784
0
VERTEX
8
Stations
10
0.98826
20
12.79221
0
VERTEX
8
Stations
10
1.08698
20
12.77648
0
VERTEX
8
Stations
10
1.18561
20
12.76063
0
VERTEX
8
Stations
10
1.28445
20
12.74461
0
VERTEX
8
Stations
10
1.38314
20
12.72848
0
VERTEX
8
Stations
10
1.48184
20
12.71222
0
VERTEX
8
Stations
10
1.58068
20
12.69579
0
VERTEX
8
Stations
10
1.67914
20
12.6793
0
VERTEX
8
Stations
10
1.77795
20
12.66258
0
VERTEX
8
Stations
10
1.8772
20
12.64562
0
VERTEX
8
Stations
10
1.97533
20
12.62863
0
VERTEX
8
Stations
10
2.07502
20
12.6111
0
VERTEX
8
Stations
10
2.17558
20
12.593
0
VERTEX
8
Stations
10
2.27226
20
12.5749
0
VERTEX
8
Stations
10
2.37042
20
12.55536
0
VERTEX
8
Stations
10
2.46993
20
12.53398
0
VERTEX
8
Stations
10
2.5665
20
12.51148
0
VERTEX
8
Stations
10
2.66301
20
12.48661
0
VERTEX
8
Stations
10
2.75888
20
12.4586
0
VERTEX
8
Stations
10
2.85331
20
12.42669
0
VERTEX
8
Stations
10
2.94591
20
12.39038
0
VERTEX
8
Stations
10
3.03891
20
12.3483
0
VERTEX
8
Stations
10
3.12717
20
12.30348
0
VERTEX
8
Stations
10
3.21399
20
12.25554
0
VERTEX
8
Stations
10
3.29927
20
12.20483
0
VERTEX
8
Stations
10
3.38359
20
12.14829
0
VERTEX
8
Stations
10
3.46119
20
12.08733
0
VERTEX
8
Stations
10
3.53446
20
12.01975
0
VERTEX
8
Stations
10
3.60361
20
11.94661
0
VERTEX
8
Stations
10
3.66805
20
11.86774
0
VERTEX
8
Stations
10
3.72231
20
11.78468
0
VERTEX
8
Stations
10
3.76317
20
11.70058
0
VERTEX
8
Stations
10
3.79911
20
11.60709
0
VERTEX
8
Stations
10
3.82696
20
11.50998
0
VERTEX
8
Stations
10
3.84499
20
11.41236
0
VERTEX
8
Stations
10
3.85462
20
11.31326
0
VERTEX
8
Stations
10
3.85686
20
11.21348
0
VERTEX
8
Stations
10
3.85231
20
11.11364
0
VERTEX
8
Stations
10
3.84157
20
11.01418
0
VERTEX
8
Stations
10
3.82559
20
10.91536
0
VERTEX
8
Stations
10
3.80528
20
10.81728
0
VERTEX
8
Stations
10
3.78139
20
10.72001
0
VERTEX
8
Stations
10
3.75447
20
10.62356
0
VERTEX
8
Stations
10
3.72497
20
10.5279
0
VERTEX
8
Stations
10
3.69313
20
10.43295
0
VERTEX
8
Stations
10
3.6591
20
10.33868
0
VERTEX
8
Stations
10
3.62308
20
10.2451
0
VERTEX
8
Stations
10
3.5854
20
10.15231
0
VERTEX
8
Stations
10
3.54642
20
10.06031
0
VERTEX
8
Stations
10
3.50643
20
9.96908
0
VERTEX
8
Stations
10
3.46545
20
9.87842
0
VERTEX
8
Stations
10
3.42292
20
9.78753
0
VERTEX
8
Stations
10
3.37875
20
9.69652
0
VERTEX
8
Stations
10
3.33358
20
9.60621
0
VERTEX
8
Stations
10
3.28791
20
9.51703
0
VERTEX
8
Stations
10
3.24172
20
9.4285
0
VERTEX
8
Stations
10
3.19493
20
9.34027
0
VERTEX
8
Stations
10
3.14745
20
9.25207
0
VERTEX
8
Stations
10
3.09948
20
9.16419
0
VERTEX
8
Stations
10
3.05107
20
9.07672
0
VERTEX
8
Stations
10
3.00215
20
8.98954
0
VERTEX
8
Stations
10
2.95267
20
8.9026
0
VERTEX
8
Stations
10
2.90266
20
8.81592
0
VERTEX
8
Stations
10
2.85225
20
8.72956
0
VERTEX
8
Stations
10
2.80146
20
8.64345
0
VERTEX
8
Stations
10
2.75012
20
8.55725
0
VERTEX
8
Stations
10
2.69876
20
8.47176
0
VERTEX
8
Stations
10
2.6469
20
8.38612
0
VERTEX
8
Stations
10
2.59473
20
8.30064
0
VERTEX
8
Stations
10
2.54136
20
8.21388
0
VERTEX
8
Stations
10
2.48845
20
8.12864
0
VERTEX
8
Stations
10
2.43736
20
8.04721
0
VERTEX
8
Stations
10
2.38393
20
7.9629
0
VERTEX
8
Stations
10
2.32934
20
7.87724
0
VERTEX
8
Stations
10
2.27575
20
7.79328
0
VERTEX
8
Stations
10
2.22176
20
7.70871
0
VERTEX
8
Stations
10
2.16793
20
7.62439
0
VERTEX
8
Stations
10
2.11414
20
7.5401
0
VERTEX
8
Stations
10
2.06037
20
7.45578
0
VERTEX
8
Stations
10
2.00661
20
7.37145
0
VERTEX
8
Stations
10
1.95291
20
7.28713
0
VERTEX
8
Stations
10
1.8992
20
7.20273
0
VERTEX
8
Stations
10
1.84556
20
7.11834
0
VERTEX
8
Stations
10
1.79196
20
7.0339
0
VERTEX
8
Stations
10
1.73842
20
6.94944
0
VERTEX
8
Stations
10
1.68496
20
6.86495
0
VERTEX
8
Stations
10
1.63158
20
6.78038
0
VERTEX
8
Stations
10
1.57831
20
6.69574
0
VERTEX
8
Stations
10
1.5252
20
6.61099
0
VERTEX
8
Stations
10
1.47233
20
6.52611
0
VERTEX
8
Stations
10
1.41979
20
6.44103
0
VERTEX
8
Stations
10
1.36765
20
6.35571
0
VERTEX
8
Stations
10
1.316
20
6.27008
0
VERTEX
8
Stations
10
1.26494
20
6.18414
0
VERTEX
8
Stations
10
1.21449
20
6.09791
0
VERTEX
8
Stations
10
1.16459
20
6.01127
0
VERTEX
8
Stations
10
1.11518
20
5.9242
0
VERTEX
8
Stations
10
1.06628
20
5.83693
0
VERTEX
8
Stations
10
1.01783
20
5.74945
0
VERTEX
8
Stations
10
0.96976
20
5.6617
0
VERTEX
8
Stations
10
0.92212
20
5.57376
0
VERTEX
8
Stations
10
0.87402
20
5.48393
0
VERTEX
8
Stations
10
0.82817
20
5.39718
0
VERTEX
8
Stations
10
0.78203
20
5.30848
0
VERTEX
8
Stations
10
0.73641
20
5.21881
0
VERTEX
8
Stations
10
0.69233
20
5.12931
0
VERTEX
8
Stations
10
0.64871
20
5.03687
0
VERTEX
8
Stations
10
0.60799
20
4.94679
0
VERTEX
8
Stations
10
0.56814
20
4.85601
0
VERTEX
8
Stations
10
0.52887
20
4.76434
0
VERTEX
8
Stations
10
0.49037
20
4.67209
0
VERTEX
8
Stations
10
0.45283
20
4.57927
0
VERTEX
8
Stations
10
0.41647
20
4.48581
0
VERTEX
8
Stations
10
0.38156
20
4.39188
0
VERTEX
8
Stations
10
0.34816
20
4.29756
0
VERTEX
8
Stations
10
0.31619
20
4.2029
0
VERTEX
8
Stations
10
0.2855
20
4.10786
0
VERTEX
8
Stations
10
0.25601
20
4.01238
0
VERTEX
8
Stations
10
0.22773
20
3.91649
0
VERTEX
8
Stations
10
0.20071
20
3.8202
0
VERTEX
8
Stations
10
0.175
20
3.72356
0
VERTEX
8
Stations
10
0.15062
20
3.62659
0
VERTEX
8
Stations
10
0.12756
20
3.52932
0
VERTEX
8
Stations
10
0.10579
20
3.43175
0
VERTEX
8
Stations
10
0.08533
20
3.33389
0
VERTEX
8
Stations
10
0.06628
20
3.23571
0
VERTEX
8
Stations
10
0.04884
20
3.13723
0
VERTEX
8
Stations
10
0.03292
20
3.03659
0
VERTEX
8
Stations
10
0.01904
20
2.93837
0
VERTEX
8
Stations
10
0.00595
20
2.83834
0
VERTEX
8
Stations
10
0.0
20
2.79168
0
SEQEND
0
POLYLINE
8
Stations
62
135
66
1
0
VERTEX
8
Stations
10
0.0
20
7.66673
0
VERTEX
8
Stations
10
0.01968
20
7.76477
0
VERTEX
8
Stations
10
0.0396
20
7.86276
0
VERTEX
8
Stations
10
0.05997
20
7.96067
0
VERTEX
8
Stations
10
0.08106
20
8.05842
0
VERTEX
8
Stations
10
0.10311
20
8.15597
0
VERTEX
8
Stations
10
0.12635
20
8.25326
0
VERTEX
8
Stations
10
0.15081
20
8.35024
0
VERTEX
8
Stations
10
0.17641
20
8.44691
0
VERTEX
8
Stations
10
0.20309
20
8.54328
0
VERTEX
8
Stations
10
0.23075
20
8.63937
0
VERTEX
8
Stations
10
0.25934
20
8.73519
0
VERTEX
8
Stations
10
0.28883
20
8.83074
0
VERTEX
8
Stations
10
0.31921
20
8.92603
0
VERTEX
8
Stations
10
0.35049
20
9.02103
0
VERTEX
8
Stations
10
0.38266
20
9.11574
0
VERTEX
8
Stations
10
0.41573
20
9.21012
0
VERTEX
8
Stations
10
0.44974
20
9.30413
0
VERTEX
8
Stations
10
0.4847
20
9.39779
0
VERTEX
8
Stations
10
0.52063
20
9.49109
0
VERTEX
8
Stations
10
0.55752
20
9.58409
0
VERTEX
8
Stations
10
0.59527
20
9.67691
0
VERTEX
8
Stations
10
0.63351
20
9.76899
0
VERTEX
8
Stations
10
0.67247
20
9.86117
0
VERTEX
8
Stations
10
0.71193
20
9.95307
0
VERTEX
8
Stations
10
0.75205
20
10.04453
0
VERTEX
8
Stations
10
0.793
20
10.13543
0
VERTEX
8
Stations
10
0.8348
20
10.22583
0
VERTEX
8
Stations
10
0.87755
20
10.31622
0
VERTEX
8
Stations
10
0.921
20
10.40655
0
VERTEX
8
Stations
10
0.96495
20
10.4967
0
VERTEX
8
Stations
10
1.00924
20
10.58653
0
VERTEX
8
Stations
10
1.0538
20
10.67602
0
VERTEX
8
Stations
10
1.09873
20
10.76539
0
VERTEX
8
Stations
10
1.14401
20
10.8546
0
VERTEX
8
Stations
10
1.18965
20
10.94362
0
VERTEX
8
Stations
10
1.23565
20
11.03237
0
VERTEX
8
Stations
10
1.28197
20
11.12095
0
VERTEX
8
Stations
10
1.32852
20
11.20944
0
VERTEX
8
Stations
10
1.37514
20
11.29789
0
VERTEX
8
Stations
10
1.42168
20
11.3864
0
VERTEX
8
Stations
10
1.46837
20
11.47582
0
VERTEX
8
Stations
10
1.51384
20
11.56388
0
VERTEX
8
Stations
10
1.55924
20
11.65304
0
VERTEX
8
Stations
10
1.60417
20
11.74261
0
VERTEX
8
Stations
10
1.64834
20
11.83211
0
VERTEX
8
Stations
10
1.69188
20
11.92206
0
VERTEX
8
Stations
10
1.73478
20
12.01306
0
VERTEX
8
Stations
10
1.77617
20
12.10448
0
VERTEX
8
Stations
10
1.81563
20
12.19791
0
VERTEX
8
Stations
10
1.85147
20
12.29104
0
VERTEX
8
Stations
10
1.88471
20
12.38481
0
VERTEX
8
Stations
10
1.91552
20
12.48007
0
VERTEX
8
Stations
10
1.94272
20
12.57663
0
VERTEX
8
Stations
10
1.96448
20
12.674
0
VERTEX
8
Stations
10
1.97965
20
12.77255
0
VERTEX
8
Stations
10
1.98786
20
12.87268
0
VERTEX
8
Stations
10
1.98732
20
12.97337
0
VERTEX
8
Stations
10
1.9751
20
13.0718
0
VERTEX
8
Stations
10
1.95054
20
13.17039
0
VERTEX
8
Stations
10
1.91531
20
13.26324
0
VERTEX
8
Stations
10
1.86857
20
13.35127
0
VERTEX
8
Stations
10
1.81109
20
13.43307
0
VERTEX
8
Stations
10
1.74556
20
13.50866
0
VERTEX
8
Stations
10
1.67466
20
13.57729
0
VERTEX
8
Stations
10
1.59588
20
13.63695
0
VERTEX
8
Stations
10
1.51268
20
13.69181
0
VERTEX
8
Stations
10
1.42647
20
13.74305
0
VERTEX
8
Stations
10
1.34057
20
13.78643
0
VERTEX
8
Stations
10
1.24752
20
13.82312
0
VERTEX
8
Stations
10
1.15178
20
13.85612
0
VERTEX
8
Stations
10
1.05493
20
13.88598
0
VERTEX
8
Stations
10
0.95789
20
13.91257
0
VERTEX
8
Stations
10
0.86071
20
13.93655
0
VERTEX
8
Stations
10
0.7633
20
13.95883
0
VERTEX
8
Stations
10
0.66553
20
13.97992
0
VERTEX
8
Stations
10
0.56751
20
14.0001
0
VERTEX
8
Stations
10
0.46939
20
14.01954
0
VERTEX
8
Stations
10
0.37121
20
14.03838
0
VERTEX
8
Stations
10
0.27291
20
14.0567
0
VERTEX
8
Stations
10
0.17453
20
14.07461
0
VERTEX
8
Stations
10
0.07607
20
14.09223
0
VERTEX
8
Stations
10
0.0
20
14.10575
0
SEQEND
0
ENDSEC
0
EOF
